ISO-10303-21;
HEADER;
FILE_DESCRIPTION (( 'STEP AP203' ),
    '1' );
FILE_NAME ('TTN162762-E0W.STEP',
    '2019-10-24T14:07:11',
    ( '' ),
    ( '' ),
    'SwSTEP 2.0',
    'SolidWorks 2018',
    '' );
FILE_SCHEMA (( 'CONFIG_CONTROL_DESIGN' ));
ENDSEC;

DATA;
#1 = EDGE_CURVE ( 'NONE', #17, #6, #145, .T. ) ;
#2 = LOCAL_TIME ( 10, 7, 11.00000000000000000, #199 ) ;
#3 = DIRECTION ( 'NONE',  ( 1.000000000000000000, 0.0000000000000000000, 0.0000000000000000000 ) ) ;
#4 = VECTOR ( 'NONE', #234, 1000.000000000000114 ) ;
#5 = DIRECTION ( 'NONE',  ( -0.0000000000000000000, -0.0000000000000000000, 1.000000000000000000 ) ) ;
#6 = VERTEX_POINT ( 'NONE', #305 ) ;
#7 = PRODUCT_DEFINITION_FORMATION_WITH_SPECIFIED_SOURCE ( 'ANY', '', #207, .NOT_KNOWN. ) ;
#8 = DIRECTION ( 'NONE',  ( 1.000000000000000000, 0.0000000000000000000, 0.0000000000000000000 ) ) ;
#9 = LINE ( 'NONE', #29, #235 ) ;
#10 = CARTESIAN_POINT ( 'NONE',  ( 1.033680300378815753, 1.437269240473428855, 2.984909862363118283 ) ) ;
#11 = EDGE_CURVE ( 'NONE', #75, #286, #292, .T. ) ;
#12 = SPHERICAL_SURFACE ( 'NONE', #182, 7.062000000000000277 ) ;
#13 = EDGE_LOOP ( 'NONE', ( #54, #108, #47, #88, #40 ) ) ;
#14 = DIRECTION ( 'NONE',  ( -1.228209767754748564E-16, -1.000000000000000000, 0.0000000000000000000 ) ) ;
#15 = CARTESIAN_POINT ( 'NONE',  ( 2.533680300378815531, 1.437269240473428855, 1.735372840831656882 ) ) ;
#16 = EDGE_CURVE ( 'NONE', #267, #17, #156, .T. ) ;
#17 = VERTEX_POINT ( 'NONE', #102 ) ;
#18 = PERSON_AND_ORGANIZATION ( #215, #154 ) ;
#19 = MANIFOLD_SOLID_BREP ( 'TTN162725-1-solid1', #306 ) ;
#20 = CARTESIAN_POINT ( 'NONE',  ( 1.033680300378815753, 1.437269240473428855, -3.876627159168344772 ) ) ;
#21 = AXIS2_PLACEMENT_3D ( 'NONE', #308, #150, #64 ) ;
#22 = CALENDAR_DATE ( 2019, 24, 10 ) ;
#23 = APPROVAL ( #74, 'UNSPECIFIED' ) ;
#24 = ORIENTED_EDGE ( 'NONE', *, *, #205, .F. ) ;
#25 = LINE ( 'NONE', #42, #280 ) ;
#26 = AXIS2_PLACEMENT_3D ( 'NONE', #221, #162, #189 ) ;
#27 = CARTESIAN_POINT ( 'NONE',  ( 1.033680300378815753, 1.437269240473428855, 1.735372840831656882 ) ) ;
#28 = DIRECTION ( 'NONE',  ( -0.0000000000000000000, -0.0000000000000000000, 1.000000000000000000 ) ) ;
#29 = CARTESIAN_POINT ( 'NONE',  ( 2.533680300378815531, 1.437269240473428855, 3.185372840831655950 ) ) ;
#30 = DATE_AND_TIME ( #294, #283 ) ;
#31 = CARTESIAN_POINT ( 'NONE',  ( 1.033680300378815753, 1.437269240473428855, 3.034909862363118993 ) ) ;
#32 = AXIS2_PLACEMENT_3D ( 'NONE', #218, #5, #34 ) ;
#33 = DIRECTION ( 'NONE',  ( -0.0000000000000000000, -0.0000000000000000000, 1.000000000000000000 ) ) ;
#34 = DIRECTION ( 'NONE',  ( 1.000000000000000000, 0.0000000000000000000, 0.0000000000000000000 ) ) ;
#35 = ADVANCED_FACE ( 'NONE', ( #49 ), #222, .T. ) ;
#36 = VERTEX_POINT ( 'NONE', #253 ) ;
#37 = LINE ( 'NONE', #144, #175 ) ;
#38 = CIRCLE ( 'NONE', #274, 1.499999999999999778 ) ;
#39 = CARTESIAN_POINT ( 'NONE',  ( 1.033680300378815753, 1.437269240473428855, 1.685372840831656172 ) ) ;
#40 = ORIENTED_EDGE ( 'NONE', *, *, #166, .F. ) ;
#41 = ADVANCED_FACE ( 'NONE', ( #57 ), #224, .T. ) ;
#42 = CARTESIAN_POINT ( 'NONE',  ( -0.4663196996211843026, 1.437269240473429077, 3.185372840831655950 ) ) ;
#43 = CC_DESIGN_APPROVAL ( #23, ( #7 ) ) ;
#44 = DIRECTION ( 'NONE',  ( -0.7071067811865398012, 8.659560562354839181E-17, 0.7071067811865552333 ) ) ;
#45 = EDGE_LOOP ( 'NONE', ( #51, #191 ) ) ;
#46 = APPLICATION_CONTEXT ( 'configuration controlled 3d designs of mechanical parts and assemblies' ) ;
#47 = ORIENTED_EDGE ( 'NONE', *, *, #82, .T. ) ;
#48 = AXIS2_PLACEMENT_3D ( 'NONE', #106, #204, #227 ) ;
#49 = FACE_OUTER_BOUND ( 'NONE', #98, .T. ) ;
#50 = LOCAL_TIME ( 10, 7, 11.00000000000000000, #164 ) ;
#51 = ORIENTED_EDGE ( 'NONE', *, *, #11, .T. ) ;
#52 = AXIS2_PLACEMENT_3D ( 'NONE', #59, #28, #141 ) ;
#53 = VECTOR ( 'NONE', #257, 1000.000000000000114 ) ;
#54 = ORIENTED_EDGE ( 'NONE', *, *, #1, .F. ) ;
#55 = DIRECTION ( 'NONE',  ( 0.0000000000000000000, 0.0000000000000000000, -1.000000000000000000 ) ) ;
#56 = DIRECTION ( 'NONE',  ( 1.000000000000000000, 0.0000000000000000000, 0.0000000000000000000 ) ) ;
#57 = FACE_OUTER_BOUND ( 'NONE', #97, .T. ) ;
#58 = DIRECTION ( 'NONE',  ( 0.0000000000000000000, 0.0000000000000000000, 1.000000000000000000 ) ) ;
#59 = CARTESIAN_POINT ( 'NONE',  ( 1.033680300378815753, 1.437269240473428855, 1.735372840831656882 ) ) ;
#60 = CC_DESIGN_PERSON_AND_ORGANIZATION_ASSIGNMENT ( #170, #291, ( #7 ) ) ;
#61 = DIRECTION ( 'NONE',  ( -0.0000000000000000000, -0.0000000000000000000, 1.000000000000000000 ) ) ;
#62 = DIRECTION ( 'NONE',  ( 1.000000000000000000, 0.0000000000000000000, 0.0000000000000000000 ) ) ;
#63 = CIRCLE ( 'NONE', #284, 7.061999999999999389 ) ;
#64 = DIRECTION ( 'NONE',  ( 1.000000000000000000, 0.0000000000000000000, 0.0000000000000000000 ) ) ;
#65 = PRODUCT_DEFINITION ( 'UNKNOWN', '', #7, #225 ) ;
#66 = DIRECTION ( 'NONE',  ( 1.000000000000000000, 0.0000000000000000000, 0.0000000000000000000 ) ) ;
#67 = LINE ( 'NONE', #107, #53 ) ;
#68 = CIRCLE ( 'NONE', #120, 1.449999999999998845 ) ;
#69 = CARTESIAN_POINT ( 'NONE',  ( 2.533680300378815531, 1.437269240473429077, 2.984909862363118283 ) ) ;
#70 = APPROVAL_PERSON_ORGANIZATION ( #140, #79, #114 ) ;
#71 = EDGE_CURVE ( 'NONE', #168, #267, #68, .T. ) ;
#72 = APPROVAL_STATUS ( 'not_yet_approved' ) ;
#73 = DATE_AND_TIME ( #22, #2 ) ;
#74 = APPROVAL_STATUS ( 'not_yet_approved' ) ;
#75 = VERTEX_POINT ( 'NONE', #81 ) ;
#76 = CC_DESIGN_PERSON_AND_ORGANIZATION_ASSIGNMENT ( #296, #242, ( #7 ) ) ;
#77 = ORIENTED_EDGE ( 'NONE', *, *, #138, .T. ) ;
#78 = ORIENTED_EDGE ( 'NONE', *, *, #270, .T. ) ;
#79 = APPROVAL ( #320, 'UNSPECIFIED' ) ;
#80 = LOCAL_TIME ( 10, 7, 11.00000000000000000, #119 ) ;
#81 = CARTESIAN_POINT ( 'NONE',  ( 2.483680300378815708, 1.437269240473428855, 1.685372840831656172 ) ) ;
#82 = EDGE_CURVE ( 'NONE', #36, #236, #264, .T. ) ;
#83 = DIRECTION ( 'NONE',  ( 1.000000000000000000, 0.0000000000000000000, 0.0000000000000000000 ) ) ;
#84 = AXIS2_PLACEMENT_3D ( 'NONE', #165, #55, #299 ) ;
#85 = CARTESIAN_POINT ( 'NONE',  ( 1.033680300378815753, 1.437269240473428855, -3.876627159168344772 ) ) ;
#86 = APPROVAL_DATE_TIME ( #304, #79 ) ;
#87 = CIRCLE ( 'NONE', #252, 1.449999999999998845 ) ;
#88 = ORIENTED_EDGE ( 'NONE', *, *, #212, .F. ) ;
#89 = CARTESIAN_POINT ( 'NONE',  ( 0.0000000000000000000, 0.0000000000000000000, 0.0000000000000000000 ) ) ;
#90 = FACE_OUTER_BOUND ( 'NONE', #13, .T. ) ;
#91 = SECURITY_CLASSIFICATION_LEVEL ( 'unclassified' ) ;
#92 = APPROVAL_PERSON_ORGANIZATION ( #151, #177, #137 ) ;
#93 = ORIENTED_EDGE ( 'NONE', *, *, #1, .T. ) ;
#94 = PERSON_AND_ORGANIZATION_ROLE ( 'design_owner' ) ;
#95 = AXIS2_PLACEMENT_3D ( 'NONE', #128, #281, #312 ) ;
#96 = CALENDAR_DATE ( 2019, 24, 10 ) ;
#97 = EDGE_LOOP ( 'NONE', ( #181, #184, #231, #197, #155 ) ) ;
#98 = EDGE_LOOP ( 'NONE', ( #250, #112, #161, #104 ) ) ;
#99 = CIRCLE ( 'NONE', #52, 1.499999999999999778 ) ;
#100 = SECURITY_CLASSIFICATION ( '', '', #91 ) ;
#101 = FACE_OUTER_BOUND ( 'NONE', #136, .T. ) ;
#102 = CARTESIAN_POINT ( 'NONE',  ( 2.483680300378814376, 1.437269240473429077, 3.034909862363118993 ) ) ;
#103 = CARTESIAN_POINT ( 'NONE',  ( -0.4163196996211830925, 1.437269240473428855, 3.034909862363118993 ) ) ;
#104 = ORIENTED_EDGE ( 'NONE', *, *, #149, .F. ) ;
#105 = APPROVAL_DATE_TIME ( #245, #23 ) ;
#106 = CARTESIAN_POINT ( 'NONE',  ( 1.033680300378815753, 1.437269240473428855, 1.685372840831656172 ) ) ;
#107 = CARTESIAN_POINT ( 'NONE',  ( -0.4663196996211840806, 1.437269240473428855, 2.984909862363118283 ) ) ;
#108 = ORIENTED_EDGE ( 'NONE', *, *, #316, .T. ) ;
#109 = VERTEX_POINT ( 'NONE', #302 ) ;
#110 = DIRECTION ( 'NONE',  ( 1.000000000000000000, 0.0000000000000000000, 0.0000000000000000000 ) ) ;
#111 = PERSON_AND_ORGANIZATION ( #215, #154 ) ;
#112 = ORIENTED_EDGE ( 'NONE', *, *, #205, .T. ) ;
#113 = APPLICATION_PROTOCOL_DEFINITION ( 'international standard', 'config_control_design', 1994, #277 ) ;
#114 = APPROVAL_ROLE ( '' ) ;
#115 = PRODUCT_RELATED_PRODUCT_CATEGORY ( 'detail', '', ( #207 ) ) ;
#116 = ORIENTED_EDGE ( 'NONE', *, *, #138, .F. ) ;
#117 = CC_DESIGN_DATE_AND_TIME_ASSIGNMENT ( #190, #266, ( #100 ) ) ;
#118 = MECHANICAL_CONTEXT ( 'NONE', #46, 'mechanical' ) ;
#119 = COORDINATED_UNIVERSAL_TIME_OFFSET ( 5, 0, .BEHIND. ) ;
#120 = AXIS2_PLACEMENT_3D ( 'NONE', #31, #192, #56 ) ;
#121 = DIRECTION ( 'NONE',  ( 0.7071067811865398012, 0.0000000000000000000, 0.7071067811865552333 ) ) ;
#122 = EDGE_LOOP ( 'NONE', ( #24, #239, #272, #258 ) ) ;
#123 = PERSON_AND_ORGANIZATION ( #215, #154 ) ;
#124 = DIRECTION ( 'NONE',  ( -1.000000000000000000, 1.224646799147353207E-16, 0.0000000000000000000 ) ) ;
#125 = EDGE_CURVE ( 'NONE', #298, #247, #99, .T. ) ;
#126 = SPHERICAL_SURFACE ( 'NONE', #279, 7.062000000000000277 ) ;
#127 = DIRECTION ( 'NONE',  ( 1.000000000000000000, 0.0000000000000000000, 0.0000000000000000000 ) ) ;
#128 = CARTESIAN_POINT ( 'NONE',  ( 1.033680300378815753, 1.437269240473428855, 2.984909862363118283 ) ) ;
#129 = CONICAL_SURFACE ( 'NONE', #95, 1.499999999999999778, 0.7853981633974504994 ) ;
#130 = CARTESIAN_POINT ( 'NONE',  ( -0.4163196996211845913, 1.437269240473429077, 1.685372840831656172 ) ) ;
#131 = ADVANCED_FACE ( 'NONE', ( #214 ), #203, .T. ) ;
#132 = CARTESIAN_POINT ( 'NONE',  ( -0.4663196996211843026, 1.437269240473429077, 1.735372840831656882 ) ) ;
#133 = EDGE_CURVE ( 'NONE', #267, #109, #303, .T. ) ;
#134 = VECTOR ( 'NONE', #44, 1000.000000000000114 ) ;
#135 = AXIS2_PLACEMENT_3D ( 'NONE', #10, #167, #62 ) ;
#136 = EDGE_LOOP ( 'NONE', ( #208, #268, #319, #288 ) ) ;
#137 = APPROVAL_ROLE ( '' ) ;
#138 = EDGE_CURVE ( 'NONE', #298, #36, #9, .T. ) ;
#139 = DIRECTION ( 'NONE',  ( 1.000000000000000000, 0.0000000000000000000, 0.0000000000000000000 ) ) ;
#140 = PERSON_AND_ORGANIZATION ( #215, #154 ) ;
#141 = DIRECTION ( 'NONE',  ( 1.000000000000000000, 0.0000000000000000000, 0.0000000000000000000 ) ) ;
#142 = DIRECTION ( 'NONE',  ( -0.0000000000000000000, -0.0000000000000000000, 1.000000000000000000 ) ) ;
#143 = AXIS2_PLACEMENT_3D ( 'NONE', #193, #295, #139 ) ;
#144 = CARTESIAN_POINT ( 'NONE',  ( 2.533680300378815531, 1.437269240473428855, 1.735372840831656882 ) ) ;
#145 = CIRCLE ( 'NONE', #32, 1.449999999999998845 ) ;
#146 = DIRECTION ( 'NONE',  ( -0.0000000000000000000, -0.0000000000000000000, 1.000000000000000000 ) ) ;
#147 = DIRECTION ( 'NONE',  ( -0.0000000000000000000, -0.0000000000000000000, 1.000000000000000000 ) ) ;
#148 = CIRCLE ( 'NONE', #248, 1.499999999999999778 ) ;
#149 = EDGE_CURVE ( 'NONE', #75, #298, #37, .T. ) ;
#150 = DIRECTION ( 'NONE',  ( -0.0000000000000000000, -0.0000000000000000000, 1.000000000000000000 ) ) ;
#151 = PERSON_AND_ORGANIZATION ( #215, #154 ) ;
#152 = EDGE_LOOP ( 'NONE', ( #240, #78, #77, #188 ) ) ;
#153 =( LENGTH_UNIT ( ) NAMED_UNIT ( * ) SI_UNIT ( .MILLI., .METRE. ) );
#154 = ORGANIZATION ( 'UNSPECIFIED', 'UNSPECIFIED', '' ) ;
#155 = ORIENTED_EDGE ( 'NONE', *, *, #187, .T. ) ;
#156 = CIRCLE ( 'NONE', #26, 1.449999999999998845 ) ;
#157 = PERSON_AND_ORGANIZATION_ROLE ( 'creator' ) ;
#158 = LINE ( 'NONE', #132, #134 ) ;
#159 = CC_DESIGN_PERSON_AND_ORGANIZATION_ASSIGNMENT ( #18, #293, ( #100 ) ) ;
#160 = APPROVAL_PERSON_ORGANIZATION ( #123, #23, #180 ) ;
#161 = ORIENTED_EDGE ( 'NONE', *, *, #125, .F. ) ;
#162 = DIRECTION ( 'NONE',  ( -0.0000000000000000000, -0.0000000000000000000, 1.000000000000000000 ) ) ;
#163 = AXIS2_PLACEMENT_3D ( 'NONE', #196, #307, #8 ) ;
#164 = COORDINATED_UNIVERSAL_TIME_OFFSET ( 5, 0, .BEHIND. ) ;
#165 = CARTESIAN_POINT ( 'NONE',  ( 1.033680300378815753, 1.437269240473428855, 2.984909862363118283 ) ) ;
#166 = EDGE_CURVE ( 'NONE', #6, #168, #87, .T. ) ;
#167 = DIRECTION ( 'NONE',  ( -0.0000000000000000000, -0.0000000000000000000, 1.000000000000000000 ) ) ;
#168 = VERTEX_POINT ( 'NONE', #103 ) ;
#169 = ADVANCED_FACE ( 'NONE', ( #179 ), #183, .T. ) ;
#170 = PERSON_AND_ORGANIZATION ( #215, #154 ) ;
#171 = CARTESIAN_POINT ( 'NONE',  ( -0.4663196996211840806, 1.437269240473429077, 2.984909862363118283 ) ) ;
#172 = AXIS2_PLACEMENT_3D ( 'NONE', #195, #33, #83 ) ;
#173 = ADVANCED_FACE ( 'NONE', ( #90 ), #129, .T. ) ;
#174 = CARTESIAN_POINT ( 'NONE',  ( -0.4663196996211843026, 1.437269240473429077, 1.735372840831656882 ) ) ;
#175 = VECTOR ( 'NONE', #121, 1000.000000000000114 ) ;
#176 = DIRECTION ( 'NONE',  ( -1.000000000000000000, 0.0000000000000000000, 0.0000000000000000000 ) ) ;
#177 = APPROVAL ( #72, 'UNSPECIFIED' ) ;
#178 =( NAMED_UNIT ( * ) SI_UNIT ( $, .STERADIAN. ) SOLID_ANGLE_UNIT ( ) );
#179 = FACE_OUTER_BOUND ( 'NONE', #122, .T. ) ;
#180 = APPROVAL_ROLE ( '' ) ;
#181 = ORIENTED_EDGE ( 'NONE', *, *, #316, .F. ) ;
#182 = AXIS2_PLACEMENT_3D ( 'NONE', #202, #230, #287 ) ;
#183 = CONICAL_SURFACE ( 'NONE', #172, 1.499999999999999778, 0.7853981633974375098 ) ;
#184 = ORIENTED_EDGE ( 'NONE', *, *, #16, .F. ) ;
#185 = EDGE_CURVE ( 'NONE', #6, #109, #63, .T. ) ;
#186 = EDGE_LOOP ( 'NONE', ( #244, #246, #93, #290 ) ) ;
#187 = EDGE_CURVE ( 'NONE', #236, #36, #148, .T. ) ;
#188 = ORIENTED_EDGE ( 'NONE', *, *, #187, .F. ) ;
#189 = DIRECTION ( 'NONE',  ( 1.000000000000000000, 0.0000000000000000000, 0.0000000000000000000 ) ) ;
#190 = DATE_AND_TIME ( #96, #228 ) ;
#191 = ORIENTED_EDGE ( 'NONE', *, *, #300, .T. ) ;
#192 = DIRECTION ( 'NONE',  ( -0.0000000000000000000, -0.0000000000000000000, 1.000000000000000000 ) ) ;
#193 = CARTESIAN_POINT ( 'NONE',  ( 1.033680300378815753, 1.437269240473428855, 3.185372840831655950 ) ) ;
#194 = AXIS2_PLACEMENT_3D ( 'NONE', #27, #276, #273 ) ;
#195 = CARTESIAN_POINT ( 'NONE',  ( 1.033680300378815753, 1.437269240473428855, 1.735372840831656882 ) ) ;
#196 = CARTESIAN_POINT ( 'NONE',  ( 1.033680300378815753, 1.437269240473428855, 1.685372840831656172 ) ) ;
#197 = ORIENTED_EDGE ( 'NONE', *, *, #212, .T. ) ;
#198 = DIRECTION ( 'NONE',  ( -0.0000000000000000000, -0.0000000000000000000, 1.000000000000000000 ) ) ;
#199 = COORDINATED_UNIVERSAL_TIME_OFFSET ( 5, 0, .BEHIND. ) ;
#200 =( GEOMETRIC_REPRESENTATION_CONTEXT ( 3 ) GLOBAL_UNCERTAINTY_ASSIGNED_CONTEXT ( ( #211 ) ) GLOBAL_UNIT_ASSIGNED_CONTEXT ( ( #153, #285, #178 ) ) REPRESENTATION_CONTEXT ( 'NONE', 'WORKASPACE' ) );
#201 = PRODUCT_DEFINITION_SHAPE ( 'NONE', 'NONE',  #65 ) ;
#202 = CARTESIAN_POINT ( 'NONE',  ( 1.033680300378815753, 1.437269240473428855, -3.876627159168344772 ) ) ;
#203 = CYLINDRICAL_SURFACE ( 'NONE', #143, 1.499999999999999778 ) ;
#204 = DIRECTION ( 'NONE',  ( 0.0000000000000000000, 0.0000000000000000000, -1.000000000000000000 ) ) ;
#205 = EDGE_CURVE ( 'NONE', #286, #247, #158, .T. ) ;
#206 = APPLICATION_PROTOCOL_DEFINITION ( 'international standard', 'config_control_design', 1994, #46 ) ;
#207 = PRODUCT ( 'TTN162762-E0W', 'TTN162762-E0W', '', ( #118 ) ) ;
#208 = ORIENTED_EDGE ( 'NONE', *, *, #71, .T. ) ;
#209 = CC_DESIGN_SECURITY_CLASSIFICATION ( #100, ( #7 ) ) ;
#210 = DATE_TIME_ROLE ( 'creation_date' ) ;
#211 = UNCERTAINTY_MEASURE_WITH_UNIT (LENGTH_MEASURE( 1.000000000000000082E-05 ), #153, 'distance_accuracy_value', 'NONE');
#212 = EDGE_CURVE ( 'NONE', #168, #236, #67, .T. ) ;
#213 = APPROVAL_DATE_TIME ( #30, #177 ) ;
#214 = FACE_OUTER_BOUND ( 'NONE', #249, .T. ) ;
#215 = PERSON ( 'UNSPECIFIED', 'UNSPECIFIED', 'UNSPECIFIED', ('UNSPECIFIED'), ('UNSPECIFIED'), ('UNSPECIFIED') ) ;
#216 = CC_DESIGN_APPROVAL ( #177, ( #100 ) ) ;
#217 = SHAPE_DEFINITION_REPRESENTATION ( #201, #321 ) ;
#218 = CARTESIAN_POINT ( 'NONE',  ( 1.033680300378815753, 1.437269240473428855, 3.034909862363118993 ) ) ;
#219 = ORIENTED_EDGE ( 'NONE', *, *, #82, .F. ) ;
#220 = CC_DESIGN_PERSON_AND_ORGANIZATION_ASSIGNMENT ( #111, #94, ( #207 ) ) ;
#221 = CARTESIAN_POINT ( 'NONE',  ( 1.033680300378815753, 1.437269240473428855, 3.034909862363118993 ) ) ;
#222 = CONICAL_SURFACE ( 'NONE', #194, 1.499999999999999778, 0.7853981633974375098 ) ;
#223 = COORDINATED_UNIVERSAL_TIME_OFFSET ( 5, 0, .BEHIND. ) ;
#224 = CONICAL_SURFACE ( 'NONE', #84, 1.499999999999999778, 0.7853981633974504994 ) ;
#225 = DESIGN_CONTEXT ( 'detailed design', #277, 'design' ) ;
#226 = CARTESIAN_POINT ( 'NONE',  ( 1.033680300378815753, 1.437269240473428855, 3.034909862363118993 ) ) ;
#227 = DIRECTION ( 'NONE',  ( 1.000000000000000000, 0.0000000000000000000, 0.0000000000000000000 ) ) ;
#228 = LOCAL_TIME ( 10, 7, 11.00000000000000000, #265 ) ;
#229 = DIRECTION ( 'NONE',  ( 0.0000000000000000000, 1.000000000000000000, 0.0000000000000000000 ) ) ;
#230 = DIRECTION ( 'NONE',  ( -1.000000000000000000, 0.0000000000000000000, 0.0000000000000000000 ) ) ;
#231 = ORIENTED_EDGE ( 'NONE', *, *, #71, .F. ) ;
#232 = PERSON_AND_ORGANIZATION ( #215, #154 ) ;
#233 = AXIS2_PLACEMENT_3D ( 'NONE', #251, #124, #14 ) ;
#234 = DIRECTION ( 'NONE',  ( 0.7071067811865490160, 8.659560562354952580E-17, -0.7071067811865460184 ) ) ;
#235 = VECTOR ( 'NONE', #61, 1000.000000000000000 ) ;
#236 = VERTEX_POINT ( 'NONE', #171 ) ;
#237 = ORIENTED_EDGE ( 'NONE', *, *, #282, .T. ) ;
#238 = CALENDAR_DATE ( 2019, 24, 10 ) ;
#239 = ORIENTED_EDGE ( 'NONE', *, *, #11, .F. ) ;
#240 = ORIENTED_EDGE ( 'NONE', *, *, #282, .F. ) ;
#241 = CC_DESIGN_APPROVAL ( #79, ( #65 ) ) ;
#242 = PERSON_AND_ORGANIZATION_ROLE ( 'design_supplier' ) ;
#243 = CIRCLE ( 'NONE', #48, 1.450000000000000178 ) ;
#244 = ORIENTED_EDGE ( 'NONE', *, *, #133, .F. ) ;
#245 = DATE_AND_TIME ( #254, #80 ) ;
#246 = ORIENTED_EDGE ( 'NONE', *, *, #16, .T. ) ;
#247 = VERTEX_POINT ( 'NONE', #174 ) ;
#248 = AXIS2_PLACEMENT_3D ( 'NONE', #259, #147, #66 ) ;
#249 = EDGE_LOOP ( 'NONE', ( #301, #237, #219, #116 ) ) ;
#250 = ORIENTED_EDGE ( 'NONE', *, *, #300, .F. ) ;
#251 = CARTESIAN_POINT ( 'NONE',  ( 1.033680300378815753, 1.437269240473428855, -3.876627159168344772 ) ) ;
#252 = AXIS2_PLACEMENT_3D ( 'NONE', #226, #142, #3 ) ;
#253 = CARTESIAN_POINT ( 'NONE',  ( 2.533680300378815531, 1.437269240473428855, 2.984909862363118283 ) ) ;
#254 = CALENDAR_DATE ( 2019, 24, 10 ) ;
#255 = DIRECTION ( 'NONE',  ( 0.0000000000000000000, -0.0000000000000000000, 1.000000000000000000 ) ) ;
#256 = ADVANCED_FACE ( 'NONE', ( #271 ), #309, .T. ) ;
#257 = DIRECTION ( 'NONE',  ( -0.7071067811865490160, 0.0000000000000000000, -0.7071067811865460184 ) ) ;
#258 = ORIENTED_EDGE ( 'NONE', *, *, #270, .F. ) ;
#259 = CARTESIAN_POINT ( 'NONE',  ( 1.033680300378815753, 1.437269240473428855, 2.984909862363118283 ) ) ;
#260 = PLANE ( 'NONE',  #317 ) ;
#261 = ADVANCED_FACE ( 'NONE', ( #318 ), #126, .T. ) ;
#262 = CC_DESIGN_PERSON_AND_ORGANIZATION_ASSIGNMENT ( #232, #157, ( #65 ) ) ;
#263 = CARTESIAN_POINT ( 'NONE',  ( 1.033680300378815753, 1.437269240473428855, 1.735372840831656882 ) ) ;
#264 = CIRCLE ( 'NONE', #135, 1.499999999999999778 ) ;
#265 = COORDINATED_UNIVERSAL_TIME_OFFSET ( 5, 0, .BEHIND. ) ;
#266 = DATE_TIME_ROLE ( 'classification_date' ) ;
#267 = VERTEX_POINT ( 'NONE', #278 ) ;
#268 = ORIENTED_EDGE ( 'NONE', *, *, #133, .T. ) ;
#269 = DIRECTION ( 'NONE',  ( 1.000000000000000000, 0.0000000000000000000, 0.0000000000000000000 ) ) ;
#270 = EDGE_CURVE ( 'NONE', #247, #298, #38, .T. ) ;
#271 = FACE_OUTER_BOUND ( 'NONE', #152, .T. ) ;
#272 = ORIENTED_EDGE ( 'NONE', *, *, #149, .T. ) ;
#273 = DIRECTION ( 'NONE',  ( 1.000000000000000000, 0.0000000000000000000, 0.0000000000000000000 ) ) ;
#274 = AXIS2_PLACEMENT_3D ( 'NONE', #263, #198, #110 ) ;
#275 = ADVANCED_FACE ( 'NONE', ( #289 ), #260, .F. ) ;
#276 = DIRECTION ( 'NONE',  ( -0.0000000000000000000, -0.0000000000000000000, 1.000000000000000000 ) ) ;
#277 = APPLICATION_CONTEXT ( 'configuration controlled 3d designs of mechanical parts and assemblies' ) ;
#278 = CARTESIAN_POINT ( 'NONE',  ( 1.033680300378815531, -0.01273075952656866835, 3.034909862363118993 ) ) ;
#279 = AXIS2_PLACEMENT_3D ( 'NONE', #20, #176, #229 ) ;
#280 = VECTOR ( 'NONE', #146, 1000.000000000000000 ) ;
#281 = DIRECTION ( 'NONE',  ( 0.0000000000000000000, 0.0000000000000000000, -1.000000000000000000 ) ) ;
#282 = EDGE_CURVE ( 'NONE', #247, #236, #25, .T. ) ;
#283 = LOCAL_TIME ( 10, 7, 11.00000000000000000, #223 ) ;
#284 = AXIS2_PLACEMENT_3D ( 'NONE', #85, #127, #315 ) ;
#285 =( NAMED_UNIT ( * ) PLANE_ANGLE_UNIT ( ) SI_UNIT ( $, .RADIAN. ) );
#286 = VERTEX_POINT ( 'NONE', #130 ) ;
#287 = DIRECTION ( 'NONE',  ( 0.0000000000000000000, 1.000000000000000000, 0.0000000000000000000 ) ) ;
#288 = ORIENTED_EDGE ( 'NONE', *, *, #166, .T. ) ;
#289 = FACE_OUTER_BOUND ( 'NONE', #45, .T. ) ;
#290 = ORIENTED_EDGE ( 'NONE', *, *, #185, .T. ) ;
#291 = PERSON_AND_ORGANIZATION_ROLE ( 'creator' ) ;
#292 = CIRCLE ( 'NONE', #163, 1.450000000000000178 ) ;
#293 = PERSON_AND_ORGANIZATION_ROLE ( 'classification_officer' ) ;
#294 = CALENDAR_DATE ( 2019, 24, 10 ) ;
#295 = DIRECTION ( 'NONE',  ( -0.0000000000000000000, -0.0000000000000000000, 1.000000000000000000 ) ) ;
#296 = PERSON_AND_ORGANIZATION ( #215, #154 ) ;
#297 = AXIS2_PLACEMENT_3D ( 'NONE', #89, #58, #269 ) ;
#298 = VERTEX_POINT ( 'NONE', #15 ) ;
#299 = DIRECTION ( 'NONE',  ( -1.000000000000000000, 0.0000000000000000000, 0.0000000000000000000 ) ) ;
#300 = EDGE_CURVE ( 'NONE', #286, #75, #243, .T. ) ;
#301 = ORIENTED_EDGE ( 'NONE', *, *, #125, .T. ) ;
#302 = CARTESIAN_POINT ( 'NONE',  ( 1.033680300378815753, 1.437269240473429299, 3.185372840831655505 ) ) ;
#303 = CIRCLE ( 'NONE', #233, 7.062000000000000277 ) ;
#304 = DATE_AND_TIME ( #238, #50 ) ;
#305 = CARTESIAN_POINT ( 'NONE',  ( 1.033680300378815753, 2.887269240473426368, 3.034909862363118993 ) ) ;
#306 = CLOSED_SHELL ( 'NONE', ( #35, #310, #173, #131, #275, #256, #41, #261, #169 ) ) ;
#307 = DIRECTION ( 'NONE',  ( 0.0000000000000000000, 0.0000000000000000000, -1.000000000000000000 ) ) ;
#308 = CARTESIAN_POINT ( 'NONE',  ( 1.033680300378815753, 1.437269240473428855, 3.185372840831655950 ) ) ;
#309 = CYLINDRICAL_SURFACE ( 'NONE', #21, 1.499999999999999778 ) ;
#310 = ADVANCED_FACE ( 'NONE', ( #101 ), #12, .T. ) ;
#311 = DIRECTION ( 'NONE',  ( 1.000000000000000000, 0.0000000000000000000, 0.0000000000000000000 ) ) ;
#312 = DIRECTION ( 'NONE',  ( -1.000000000000000000, 0.0000000000000000000, 0.0000000000000000000 ) ) ;
#313 = CC_DESIGN_DATE_AND_TIME_ASSIGNMENT ( #73, #210, ( #65 ) ) ;
#314 = LINE ( 'NONE', #69, #4 ) ;
#315 = DIRECTION ( 'NONE',  ( 0.0000000000000000000, 0.0000000000000000000, -1.000000000000000000 ) ) ;
#316 = EDGE_CURVE ( 'NONE', #17, #36, #314, .T. ) ;
#317 = AXIS2_PLACEMENT_3D ( 'NONE', #39, #255, #311 ) ;
#318 = FACE_OUTER_BOUND ( 'NONE', #186, .T. ) ;
#319 = ORIENTED_EDGE ( 'NONE', *, *, #185, .F. ) ;
#320 = APPROVAL_STATUS ( 'not_yet_approved' ) ;
#321 = ADVANCED_BREP_SHAPE_REPRESENTATION ( 'TTN162762-E0W', ( #19, #297 ), #200 ) ;
ENDSEC;
END-ISO-10303-21;
