ISO-10303-21;
HEADER;
FILE_DESCRIPTION (( 'STEP AP203' ),
    '1' );
FILE_NAME ('Web Model 45686_45686.step',
    '2017-03-01T21:22:35',
    ( '' ),
    ( '' ),
    'SwSTEP 2.0',
    'SolidWorks 2016',
    '' );
FILE_SCHEMA (( 'CONFIG_CONTROL_DESIGN' ));
ENDSEC;

DATA;
#1 = CALENDAR_DATE ( 2017, 1, 3 ) ;
#2 = CARTESIAN_POINT ( 'NONE',  ( 0.0000000000000000000, 0.0000000000000000000, 3.250000000000000000 ) ) ;
#3 = CARTESIAN_POINT ( 'NONE',  ( 100.0000000000000000, 1.224646799147352900E-014, 3.250000000000000000 ) ) ;
#4 = CIRCLE ( 'NONE', #84, 100.0000000000000000 ) ;
#5 = CARTESIAN_POINT ( 'NONE',  ( 0.0000000000000000000, 0.0000000000000000000, 3.250000000000000000 ) ) ;
#6 = APPROVAL_ROLE ( '' ) ;
#7 = APPLICATION_PROTOCOL_DEFINITION ( 'international standard', 'config_control_design', 1994, #90 ) ;
#8 = APPROVAL_DATE_TIME ( #110, #137 ) ;
#9 = CC_DESIGN_PERSON_AND_ORGANIZATION_ASSIGNMENT ( #38, #37, ( #158 ) ) ;
#10 = CIRCLE ( 'NONE', #17, 100.0000000000000000 ) ;
#11 = ORIENTED_EDGE ( 'NONE', *, *, #42, .T. ) ;
#12 = COORDINATED_UNIVERSAL_TIME_OFFSET ( 5, 0, .BEHIND. ) ;
#13 = PERSON ( 'UNSPECIFIED', 'UNSPECIFIED', 'UNSPECIFIED', ('UNSPECIFIED'), ('UNSPECIFIED'), ('UNSPECIFIED') ) ;
#14 = VECTOR ( 'NONE', #98, 1000.000000000000000 ) ;
#15 = CALENDAR_DATE ( 2017, 1, 3 ) ;
#16 = CC_DESIGN_PERSON_AND_ORGANIZATION_ASSIGNMENT ( #43, #24, ( #158 ) ) ;
#17 = AXIS2_PLACEMENT_3D ( 'NONE', #142, #57, #56 ) ;
#18 = DIRECTION ( 'NONE',  ( 0.0000000000000000000, 0.0000000000000000000, 1.000000000000000000 ) ) ;
#19 = DATE_TIME_ROLE ( 'classification_date' ) ;
#20 = DATE_TIME_ROLE ( 'creation_date' ) ;
#21 = CARTESIAN_POINT ( 'NONE',  ( -100.0000000000000000, 0.0000000000000000000, 3.250000000000000000 ) ) ;
#22 =( NAMED_UNIT ( * ) SI_UNIT ( $, .STERADIAN. ) SOLID_ANGLE_UNIT ( ) );
#23 = CARTESIAN_POINT ( 'NONE',  ( 100.0000000000000000, 1.224646799147352900E-014, -3.250000000000000000 ) ) ;
#24 = PERSON_AND_ORGANIZATION_ROLE ( 'design_supplier' ) ;
#25 = DIRECTION ( 'NONE',  ( 0.0000000000000000000, 0.0000000000000000000, 1.000000000000000000 ) ) ;
#26 = APPROVAL_PERSON_ORGANIZATION ( #68, #137, #6 ) ;
#27 = ORIENTED_EDGE ( 'NONE', *, *, #83, .T. ) ;
#28 = ORIENTED_EDGE ( 'NONE', *, *, #47, .F. ) ;
#29 = SECURITY_CLASSIFICATION ( '', '', #162 ) ;
#30 = DATE_AND_TIME ( #15, #64 ) ;
#31 = AXIS2_PLACEMENT_3D ( 'NONE', #5, #88, #165 ) ;
#32 = APPROVAL_DATE_TIME ( #30, #163 ) ;
#33 = DIRECTION ( 'NONE',  ( -0.0000000000000000000, -0.0000000000000000000, -1.000000000000000000 ) ) ;
#34 = CARTESIAN_POINT ( 'NONE',  ( 100.0000000000000000, 1.224646799147352900E-014, 3.250000000000000000 ) ) ;
#35 = APPLICATION_PROTOCOL_DEFINITION ( 'international standard', 'config_control_design', 1994, #167 ) ;
#36 = PERSON_AND_ORGANIZATION_ROLE ( 'design_owner' ) ;
#37 = PERSON_AND_ORGANIZATION_ROLE ( 'creator' ) ;
#38 = PERSON_AND_ORGANIZATION ( #13, #119 ) ;
#39 = CC_DESIGN_PERSON_AND_ORGANIZATION_ASSIGNMENT ( #53, #115, ( #29 ) ) ;
#40 = ORIENTED_EDGE ( 'NONE', *, *, #77, .T. ) ;
#41 = PERSON_AND_ORGANIZATION ( #13, #119 ) ;
#42 = EDGE_CURVE ( 'NONE', #72, #145, #4, .T. ) ;
#43 = PERSON_AND_ORGANIZATION ( #13, #119 ) ;
#44 = CC_DESIGN_DATE_AND_TIME_ASSIGNMENT ( #96, #19, ( #29 ) ) ;
#45 = CARTESIAN_POINT ( 'NONE',  ( 0.0000000000000000000, 0.0000000000000000000, -3.250000000000000000 ) ) ;
#46 = APPROVAL_ROLE ( '' ) ;
#47 = EDGE_CURVE ( 'NONE', #78, #133, #127, .T. ) ;
#48 = ORIENTED_EDGE ( 'NONE', *, *, #77, .F. ) ;
#49 = APPROVAL ( #117, 'UNSPECIFIED' ) ;
#50 = ADVANCED_FACE ( 'NONE', ( #121 ), #116, .T. ) ;
#51 = ORIENTED_EDGE ( 'NONE', *, *, #83, .F. ) ;
#52 = AXIS2_PLACEMENT_3D ( 'NONE', #45, #54, #71 ) ;
#53 = PERSON_AND_ORGANIZATION ( #13, #119 ) ;
#54 = DIRECTION ( 'NONE',  ( 0.0000000000000000000, 0.0000000000000000000, 1.000000000000000000 ) ) ;
#55 = CARTESIAN_POINT ( 'NONE',  ( 0.0000000000000000000, 0.0000000000000000000, 3.250000000000000000 ) ) ;
#56 = DIRECTION ( 'NONE',  ( 1.000000000000000000, 0.0000000000000000000, 0.0000000000000000000 ) ) ;
#57 = DIRECTION ( 'NONE',  ( 0.0000000000000000000, 0.0000000000000000000, 1.000000000000000000 ) ) ;
#58 = VECTOR ( 'NONE', #100, 1000.000000000000000 ) ;
#59 = COORDINATED_UNIVERSAL_TIME_OFFSET ( 5, 0, .BEHIND. ) ;
#60 = CC_DESIGN_APPROVAL ( #49, ( #29 ) ) ;
#61 = ADVANCED_BREP_SHAPE_REPRESENTATION ( 'Web Model 45686_45686', ( #125, #114 ), #63 ) ;
#62 = EDGE_LOOP ( 'NONE', ( #129, #48, #27, #109 ) ) ;
#63 =( GEOMETRIC_REPRESENTATION_CONTEXT ( 3 ) GLOBAL_UNCERTAINTY_ASSIGNED_CONTEXT ( ( #94 ) ) GLOBAL_UNIT_ASSIGNED_CONTEXT ( ( #126, #156, #22 ) ) REPRESENTATION_CONTEXT ( 'NONE', 'WORKASPACE' ) );
#64 = LOCAL_TIME ( 16, 22, 35.00000000000000000, #93 ) ;
#65 = EDGE_CURVE ( 'NONE', #145, #72, #10, .T. ) ;
#66 = CIRCLE ( 'NONE', #31, 100.0000000000000000 ) ;
#67 = EDGE_LOOP ( 'NONE', ( #40, #95 ) ) ;
#68 = PERSON_AND_ORGANIZATION ( #13, #119 ) ;
#69 = CC_DESIGN_SECURITY_CLASSIFICATION ( #29, ( #158 ) ) ;
#70 = CARTESIAN_POINT ( 'NONE',  ( 0.0000000000000000000, 0.0000000000000000000, 3.250000000000000000 ) ) ;
#71 = DIRECTION ( 'NONE',  ( 1.000000000000000000, 0.0000000000000000000, -0.0000000000000000000 ) ) ;
#72 = VERTEX_POINT ( 'NONE', #23 ) ;
#73 = AXIS2_PLACEMENT_3D ( 'NONE', #55, #18, #139 ) ;
#74 = APPROVAL_STATUS ( 'not_yet_approved' ) ;
#75 = LOCAL_TIME ( 16, 22, 35.00000000000000000, #59 ) ;
#76 = AXIS2_PLACEMENT_3D ( 'NONE', #70, #33, #141 ) ;
#77 = EDGE_CURVE ( 'NONE', #133, #78, #66, .T. ) ;
#78 = VERTEX_POINT ( 'NONE', #3 ) ;
#79 = CALENDAR_DATE ( 2017, 1, 3 ) ;
#80 = ORIENTED_EDGE ( 'NONE', *, *, #42, .F. ) ;
#81 = PRODUCT_RELATED_PRODUCT_CATEGORY ( 'detail', '', ( #175 ) ) ;
#82 = PRODUCT_DEFINITION_SHAPE ( 'NONE', 'NONE',  #130 ) ;
#83 = EDGE_CURVE ( 'NONE', #133, #145, #102, .T. ) ;
#84 = AXIS2_PLACEMENT_3D ( 'NONE', #153, #99, #101 ) ;
#85 = CYLINDRICAL_SURFACE ( 'NONE', #76, 100.0000000000000000 ) ;
#86 = DATE_AND_TIME ( #132, #170 ) ;
#87 = AXIS2_PLACEMENT_3D ( 'NONE', #118, #104, #143 ) ;
#88 = DIRECTION ( 'NONE',  ( 0.0000000000000000000, 0.0000000000000000000, 1.000000000000000000 ) ) ;
#89 = PERSON_AND_ORGANIZATION_ROLE ( 'creator' ) ;
#90 = APPLICATION_CONTEXT ( 'configuration controlled 3d designs of mechanical parts and assemblies' ) ;
#91 = AXIS2_PLACEMENT_3D ( 'NONE', #2, #140, #151 ) ;
#92 = EDGE_LOOP ( 'NONE', ( #28, #154, #11, #51 ) ) ;
#93 = COORDINATED_UNIVERSAL_TIME_OFFSET ( 5, 0, .BEHIND. ) ;
#94 = UNCERTAINTY_MEASURE_WITH_UNIT (LENGTH_MEASURE( 1.000000000000000100E-005 ), #126, 'distance_accuracy_value', 'NONE');
#95 = ORIENTED_EDGE ( 'NONE', *, *, #47, .T. ) ;
#96 = DATE_AND_TIME ( #79, #75 ) ;
#97 = ADVANCED_FACE ( 'NONE', ( #168 ), #150, .F. ) ;
#98 = DIRECTION ( 'NONE',  ( -0.0000000000000000000, -0.0000000000000000000, -1.000000000000000000 ) ) ;
#99 = DIRECTION ( 'NONE',  ( 0.0000000000000000000, 0.0000000000000000000, 1.000000000000000000 ) ) ;
#100 = DIRECTION ( 'NONE',  ( -0.0000000000000000000, -0.0000000000000000000, -1.000000000000000000 ) ) ;
#101 = DIRECTION ( 'NONE',  ( 1.000000000000000000, 0.0000000000000000000, 0.0000000000000000000 ) ) ;
#102 = LINE ( 'NONE', #21, #58 ) ;
#103 = APPROVAL_STATUS ( 'not_yet_approved' ) ;
#104 = DIRECTION ( 'NONE',  ( -0.0000000000000000000, -0.0000000000000000000, -1.000000000000000000 ) ) ;
#105 = DIRECTION ( 'NONE',  ( 1.000000000000000000, 0.0000000000000000000, 0.0000000000000000000 ) ) ;
#106 = PERSON_AND_ORGANIZATION ( #13, #119 ) ;
#107 = EDGE_CURVE ( 'NONE', #78, #72, #172, .T. ) ;
#108 = EDGE_LOOP ( 'NONE', ( #135, #80 ) ) ;
#109 = ORIENTED_EDGE ( 'NONE', *, *, #65, .T. ) ;
#110 = DATE_AND_TIME ( #1, #112 ) ;
#111 = FACE_OUTER_BOUND ( 'NONE', #92, .T. ) ;
#112 = LOCAL_TIME ( 16, 22, 35.00000000000000000, #144 ) ;
#113 = APPROVAL_ROLE ( '' ) ;
#114 = AXIS2_PLACEMENT_3D ( 'NONE', #169, #25, #105 ) ;
#115 = PERSON_AND_ORGANIZATION_ROLE ( 'classification_officer' ) ;
#116 = PLANE ( 'NONE',  #91 ) ;
#117 = APPROVAL_STATUS ( 'not_yet_approved' ) ;
#118 = CARTESIAN_POINT ( 'NONE',  ( 0.0000000000000000000, 0.0000000000000000000, 3.250000000000000000 ) ) ;
#119 = ORGANIZATION ( 'UNSPECIFIED', 'UNSPECIFIED', '' ) ;
#120 = APPROVAL_PERSON_ORGANIZATION ( #106, #49, #113 ) ;
#121 = FACE_OUTER_BOUND ( 'NONE', #67, .T. ) ;
#122 = PERSON_AND_ORGANIZATION ( #13, #119 ) ;
#123 = CC_DESIGN_PERSON_AND_ORGANIZATION_ASSIGNMENT ( #41, #36, ( #175 ) ) ;
#124 = ADVANCED_FACE ( 'NONE', ( #152 ), #85, .T. ) ;
#125 = MANIFOLD_SOLID_BREP ( 'Boss-Extrude1', #157 ) ;
#126 =( LENGTH_UNIT ( ) NAMED_UNIT ( * ) SI_UNIT ( .MILLI., .METRE. ) );
#127 = CIRCLE ( 'NONE', #73, 100.0000000000000000 ) ;
#128 = MECHANICAL_CONTEXT ( 'NONE', #90, 'mechanical' ) ;
#129 = ORIENTED_EDGE ( 'NONE', *, *, #107, .F. ) ;
#130 = PRODUCT_DEFINITION ( 'UNKNOWN', '', #158, #171 ) ;
#131 = COORDINATED_UNIVERSAL_TIME_OFFSET ( 5, 0, .BEHIND. ) ;
#132 = CALENDAR_DATE ( 2017, 1, 3 ) ;
#133 = VERTEX_POINT ( 'NONE', #166 ) ;
#134 = CYLINDRICAL_SURFACE ( 'NONE', #87, 100.0000000000000000 ) ;
#135 = ORIENTED_EDGE ( 'NONE', *, *, #65, .F. ) ;
#136 = APPROVAL_PERSON_ORGANIZATION ( #122, #163, #46 ) ;
#137 = APPROVAL ( #103, 'UNSPECIFIED' ) ;
#138 = CARTESIAN_POINT ( 'NONE',  ( -100.0000000000000000, 0.0000000000000000000, -3.250000000000000000 ) ) ;
#139 = DIRECTION ( 'NONE',  ( 1.000000000000000000, 0.0000000000000000000, 0.0000000000000000000 ) ) ;
#140 = DIRECTION ( 'NONE',  ( 0.0000000000000000000, 0.0000000000000000000, 1.000000000000000000 ) ) ;
#141 = DIRECTION ( 'NONE',  ( -1.000000000000000000, 0.0000000000000000000, 0.0000000000000000000 ) ) ;
#142 = CARTESIAN_POINT ( 'NONE',  ( 0.0000000000000000000, 0.0000000000000000000, -3.250000000000000000 ) ) ;
#143 = DIRECTION ( 'NONE',  ( -1.000000000000000000, 0.0000000000000000000, 0.0000000000000000000 ) ) ;
#144 = COORDINATED_UNIVERSAL_TIME_OFFSET ( 5, 0, .BEHIND. ) ;
#145 = VERTEX_POINT ( 'NONE', #138 ) ;
#146 = CC_DESIGN_DATE_AND_TIME_ASSIGNMENT ( #86, #20, ( #130 ) ) ;
#147 = CC_DESIGN_APPROVAL ( #137, ( #130 ) ) ;
#148 = SHAPE_DEFINITION_REPRESENTATION ( #82, #61 ) ;
#149 = LOCAL_TIME ( 16, 22, 35.00000000000000000, #131 ) ;
#150 = PLANE ( 'NONE',  #52 ) ;
#151 = DIRECTION ( 'NONE',  ( 1.000000000000000000, 0.0000000000000000000, -0.0000000000000000000 ) ) ;
#152 = FACE_OUTER_BOUND ( 'NONE', #62, .T. ) ;
#153 = CARTESIAN_POINT ( 'NONE',  ( 0.0000000000000000000, 0.0000000000000000000, -3.250000000000000000 ) ) ;
#154 = ORIENTED_EDGE ( 'NONE', *, *, #107, .T. ) ;
#155 = CALENDAR_DATE ( 2017, 1, 3 ) ;
#156 =( NAMED_UNIT ( * ) PLANE_ANGLE_UNIT ( ) SI_UNIT ( $, .RADIAN. ) );
#157 = CLOSED_SHELL ( 'NONE', ( #161, #124, #50, #97 ) ) ;
#158 = PRODUCT_DEFINITION_FORMATION_WITH_SPECIFIED_SOURCE ( 'ANY', '', #175, .NOT_KNOWN. ) ;
#159 = CC_DESIGN_PERSON_AND_ORGANIZATION_ASSIGNMENT ( #164, #89, ( #130 ) ) ;
#160 = DATE_AND_TIME ( #155, #149 ) ;
#161 = ADVANCED_FACE ( 'NONE', ( #111 ), #134, .T. ) ;
#162 = SECURITY_CLASSIFICATION_LEVEL ( 'unclassified' ) ;
#163 = APPROVAL ( #74, 'UNSPECIFIED' ) ;
#164 = PERSON_AND_ORGANIZATION ( #13, #119 ) ;
#165 = DIRECTION ( 'NONE',  ( 1.000000000000000000, 0.0000000000000000000, 0.0000000000000000000 ) ) ;
#166 = CARTESIAN_POINT ( 'NONE',  ( -100.0000000000000000, 0.0000000000000000000, 3.250000000000000000 ) ) ;
#167 = APPLICATION_CONTEXT ( 'configuration controlled 3d designs of mechanical parts and assemblies' ) ;
#168 = FACE_OUTER_BOUND ( 'NONE', #108, .T. ) ;
#169 = CARTESIAN_POINT ( 'NONE',  ( 0.0000000000000000000, 0.0000000000000000000, 0.0000000000000000000 ) ) ;
#170 = LOCAL_TIME ( 16, 22, 35.00000000000000000, #12 ) ;
#171 = DESIGN_CONTEXT ( 'detailed design', #167, 'design' ) ;
#172 = LINE ( 'NONE', #34, #14 ) ;
#173 = APPROVAL_DATE_TIME ( #160, #49 ) ;
#174 = CC_DESIGN_APPROVAL ( #163, ( #158 ) ) ;
#175 = PRODUCT ( 'Web Model 45686_45686', 'Web Model 45686_45686', '', ( #128 ) ) ;
ENDSEC;
END-ISO-10303-21;
