ISO-10303-21;
HEADER;
FILE_DESCRIPTION (( 'STEP AP203' ),
    '1' );
FILE_NAME ('21993-E0W.STEP',
    '2018-06-01T18:11:06',
    ( 'admin' ),
    ( '' ),
    'SwSTEP 2.0',
    'SolidWorks 2016',
    '' );
FILE_SCHEMA (( 'CONFIG_CONTROL_DESIGN' ));
ENDSEC;

DATA;
#1 = ORIENTED_EDGE ( 'NONE', *, *, #34, .T. ) ;
#2 = DIRECTION ( 'NONE',  ( -1.000000000000000000, 0.0000000000000000000, 0.0000000000000000000 ) ) ;
#3 = APPLICATION_PROTOCOL_DEFINITION ( 'international standard', 'config_control_design', 1994, #229 ) ;
#4 = CIRCLE ( 'NONE', #184, 11.45003937007874100 ) ;
#5 = ORGANIZATION ( 'UNSPECIFIED', 'UNSPECIFIED', '' ) ;
#6 = CALENDAR_DATE ( 2018, 1, 6 ) ;
#7 =( NAMED_UNIT ( * ) SI_UNIT ( $, .STERADIAN. ) SOLID_ANGLE_UNIT ( ) );
#8 = DIRECTION ( 'NONE',  ( 0.0000000000000000000, -1.000000000000000000, -1.878145495644180800E-016 ) ) ;
#9 =( CONVERSION_BASED_UNIT ( 'INCH', #92 ) LENGTH_UNIT ( ) NAMED_UNIT ( #302 ) );
#10 = FACE_OUTER_BOUND ( 'NONE', #205, .T. ) ;
#11 = ADVANCED_FACE ( 'NONE', ( #172 ), #279, .T. ) ;
#12 =( LENGTH_UNIT ( ) NAMED_UNIT ( * ) SI_UNIT ( $, .METRE. ) );
#13 = EDGE_CURVE ( 'NONE', #28, #310, #206, .T. ) ;
#14 = VECTOR ( 'NONE', #248, 39.37007874015748100 ) ;
#15 = ORIENTED_EDGE ( 'NONE', *, *, #245, .T. ) ;
#16 = CARTESIAN_POINT ( 'NONE',  ( 0.0000000000000000000, 0.0000000000000000000, 0.0000000000000000000 ) ) ;
#17 = AXIS2_PLACEMENT_3D ( 'NONE', #282, #287, #288 ) ;
#18 = VERTEX_POINT ( 'NONE', #259 ) ;
#19 = VERTEX_POINT ( 'NONE', #160 ) ;
#20 = PRODUCT ( '21993-E0W', '21993-E0W', '', ( #214 ) ) ;
#21 = ORIENTED_EDGE ( 'NONE', *, *, #76, .F. ) ;
#22 = DIRECTION ( 'NONE',  ( 0.0000000000000000000, -1.000000000000000000, -1.850371707708594100E-016 ) ) ;
#23 = DIRECTION ( 'NONE',  ( 0.0000000000000000000, 0.0000000000000000000, 1.000000000000000000 ) ) ;
#24 = ORIENTED_EDGE ( 'NONE', *, *, #281, .T. ) ;
#25 = CARTESIAN_POINT ( 'NONE',  ( 0.0000000000000000000, 0.0000000000000000000, 11.52331842636934300 ) ) ;
#26 = EDGE_LOOP ( 'NONE', ( #137, #230, #171, #33 ) ) ;
#27 = DIRECTION ( 'NONE',  ( -1.000000000000000000, 0.0000000000000000000, -0.0000000000000000000 ) ) ;
#28 = VERTEX_POINT ( 'NONE', #226 ) ;
#29 = PERSON_AND_ORGANIZATION ( #324, #5 ) ;
#30 = ORIENTED_EDGE ( 'NONE', *, *, #273, .T. ) ;
#31 = CARTESIAN_POINT ( 'NONE',  ( 0.0000000000000000000, 0.0000000000000000000, 5.821310552353593500 ) ) ;
#32 = ORIENTED_EDGE ( 'NONE', *, *, #273, .F. ) ;
#33 = ORIENTED_EDGE ( 'NONE', *, *, #264, .T. ) ;
#34 = EDGE_CURVE ( 'NONE', #318, #18, #201, .T. ) ;
#35 = EDGE_LOOP ( 'NONE', ( #268, #270, #280, #32 ) ) ;
#36 = COORDINATED_UNIVERSAL_TIME_OFFSET ( 5, 0, .BEHIND. ) ;
#37 = DIRECTION ( 'NONE',  ( 0.0000000000000000000, 0.0000000000000000000, 1.000000000000000000 ) ) ;
#38 = DIRECTION ( 'NONE',  ( 1.000000000000000000, 0.0000000000000000000, 0.0000000000000000000 ) ) ;
#39 = CARTESIAN_POINT ( 'NONE',  ( 0.0000000000000000000, -0.5000000000000000000, -0.05789920282311288000 ) ) ;
#40 = ADVANCED_FACE ( 'NONE', ( #191 ), #185, .T. ) ;
#41 = DATE_AND_TIME ( #6, #199 ) ;
#42 = CYLINDRICAL_SURFACE ( 'NONE', #90, 0.5000000000000000000 ) ;
#43 = DIRECTION ( 'NONE',  ( 0.0000000000000000000, -1.000000000000000000, -1.726631975225924500E-016 ) ) ;
#44 = VECTOR ( 'NONE', #161, 39.37007874015748100 ) ;
#45 = CC_DESIGN_SECURITY_CLASSIFICATION ( #93, ( #180 ) ) ;
#46 = LINE ( 'NONE', #106, #44 ) ;
#47 = CARTESIAN_POINT ( 'NONE',  ( 0.0000000000000000000, 0.0000000000000000000, 11.52331842636934300 ) ) ;
#48 = AXIS2_PLACEMENT_3D ( 'NONE', #25, #325, #311 ) ;
#49 = APPLICATION_CONTEXT ( 'configuration controlled 3d designs of mechanical parts and assemblies' ) ;
#50 = SPHERICAL_SURFACE ( 'NONE', #126, 11.45003937007874100 ) ;
#51 = CIRCLE ( 'NONE', #207, 5.905511811023623100 ) ;
#52 = DIRECTION ( 'NONE',  ( -0.0000000000000000000, -1.836909530733566100E-016, 1.000000000000000000 ) ) ;
#53 = SPHERICAL_SURFACE ( 'NONE', #208, 5.905511811023623100 ) ;
#54 = DIRECTION ( 'NONE',  ( 0.0000000000000000000, -1.000000000000000000, -1.878145495644180800E-016 ) ) ;
#55 = FACE_OUTER_BOUND ( 'NONE', #102, .T. ) ;
#56 = ORIENTED_EDGE ( 'NONE', *, *, #320, .T. ) ;
#57 = EDGE_LOOP ( 'NONE', ( #85, #278, #24 ) ) ;
#58 = CARTESIAN_POINT ( 'NONE',  ( 0.0000000000000000000, -1.961855120168452400E-018, 0.08395925086384747900 ) ) ;
#59 = CARTESIAN_POINT ( 'NONE',  ( 0.0000000000000000000, 0.0000000000000000000, 5.821310552353593500 ) ) ;
#60 = AXIS2_PLACEMENT_3D ( 'NONE', #276, #275, #272 ) ;
#61 = ORIENTED_EDGE ( 'NONE', *, *, #138, .F. ) ;
#62 = PERSON_AND_ORGANIZATION ( #324, #5 ) ;
#63 = CARTESIAN_POINT ( 'NONE',  ( 6.055048479497718700E-017, 0.4944322300693956800, -0.06346697275371655800 ) ) ;
#64 = CARTESIAN_POINT ( 'NONE',  ( 0.0000000000000000000, 7.231807861180451700E-016, -0.08420125867002968600 ) ) ;
#65 = CALENDAR_DATE ( 2018, 1, 6 ) ;
#66 = LOCAL_TIME ( 14, 11, 5.000000000000000000, #195 ) ;
#67 = DIRECTION ( 'NONE',  ( -0.0000000000000000000, -1.836909530733566100E-016, 1.000000000000000000 ) ) ;
#68 = CARTESIAN_POINT ( 'NONE',  ( 0.0000000000000000000, 2.511900840414769300E-017, -0.06346697275371662700 ) ) ;
#69 = CARTESIAN_POINT ( 'NONE',  ( 0.0000000000000000000, 2.804381347851124900E-015, 0.07327905629060256500 ) ) ;
#70 = CIRCLE ( 'NONE', #321, 0.4999999999999999400 ) ;
#71 = DATE_AND_TIME ( #65, #66 ) ;
#72 = EDGE_CURVE ( 'NONE', #310, #18, #317, .T. ) ;
#73 = APPROVAL_ROLE ( '' ) ;
#74 = APPROVAL_DATE_TIME ( #71, #323 ) ;
#75 = CARTESIAN_POINT ( 'NONE',  ( 0.0000000000000000000, 0.4944322300694123900, 0.08395925086384806200 ) ) ;
#76 = EDGE_CURVE ( 'NONE', #224, #179, #175, .T. ) ;
#77 = CC_DESIGN_APPROVAL ( #254, ( #93 ) ) ;
#78 = AXIS2_PLACEMENT_3D ( 'NONE', #115, #109, #255 ) ;
#79 = DIRECTION ( 'NONE',  ( 0.0000000000000000000, -1.000000000000000000, -1.707404996040164800E-016 ) ) ;
#80 = VECTOR ( 'NONE', #209, 39.37007874015748100 ) ;
#81 = VECTOR ( 'NONE', #166, 39.37007874015748100 ) ;
#82 = LINE ( 'NONE', #177, #80 ) ;
#83 = ADVANCED_FACE ( 'NONE', ( #130 ), #86, .T. ) ;
#84 = EDGE_CURVE ( 'NONE', #18, #318, #88, .T. ) ;
#85 = ORIENTED_EDGE ( 'NONE', *, *, #236, .F. ) ;
#86 = CONICAL_SURFACE ( 'NONE', #173, 0.4999999999999999400, 0.7853981633974375100 ) ;
#87 = ADVANCED_FACE ( 'NONE', ( #309 ), #42, .T. ) ;
#88 = CIRCLE ( 'NONE', #152, 0.5000000000000000000 ) ;
#89 = DIRECTION ( 'NONE',  ( 0.0000000000000000000, 1.000000000000000000, 1.707404996040164800E-016 ) ) ;
#90 = AXIS2_PLACEMENT_3D ( 'NONE', #116, #67, #94 ) ;
#91 = CARTESIAN_POINT ( 'NONE',  ( 0.0000000000000000000, 2.409625943910189600E-017, -0.05789920282311279000 ) ) ;
#92 = LENGTH_MEASURE_WITH_UNIT ( LENGTH_MEASURE( 0.02539999999999999900 ), #12 );
#93 = SECURITY_CLASSIFICATION ( '', '', #299 ) ;
#94 = DIRECTION ( 'NONE',  ( 0.0000000000000000000, -1.000000000000000000, -1.878145495644180800E-016 ) ) ;
#95 = ORIENTED_EDGE ( 'NONE', *, *, #13, .F. ) ;
#96 = ORIENTED_EDGE ( 'NONE', *, *, #320, .F. ) ;
#97 = DIRECTION ( 'NONE',  ( 0.0000000000000000000, 1.836909530733566100E-016, -1.000000000000000000 ) ) ;
#98 = CARTESIAN_POINT ( 'NONE',  ( 0.0000000000000000000, 0.0000000000000000000, 0.07327905629060145500 ) ) ;
#99 = DIRECTION ( 'NONE',  ( 0.0000000000000000000, 0.0000000000000000000, -1.000000000000000000 ) ) ;
#100 = DIRECTION ( 'NONE',  ( -0.0000000000000000000, -1.836909530733566100E-016, 1.000000000000000000 ) ) ;
#101 = DIRECTION ( 'NONE',  ( 1.000000000000000000, 0.0000000000000000000, 0.0000000000000000000 ) ) ;
#102 = EDGE_LOOP ( 'NONE', ( #170, #213, #204 ) ) ;
#103 = CARTESIAN_POINT ( 'NONE',  ( 0.0000000000000000000, 0.0000000000000000000, 11.52331842636934300 ) ) ;
#104 = CIRCLE ( 'NONE', #60, 11.45003937007874100 ) ;
#105 = CC_DESIGN_PERSON_AND_ORGANIZATION_ASSIGNMENT ( #124, #265, ( #93 ) ) ;
#106 = CARTESIAN_POINT ( 'NONE',  ( 0.0000000000000000000, 0.4999999999999999400, 0.07839148093324484200 ) ) ;
#107 = CARTESIAN_POINT ( 'NONE',  ( 0.0000000000000000000, -9.391061551228608700E-019, 0.07839148093324474500 ) ) ;
#108 = PERSON_AND_ORGANIZATION ( #324, #5 ) ;
#109 = DIRECTION ( 'NONE',  ( -0.0000000000000000000, -1.836909530733566100E-016, 1.000000000000000000 ) ) ;
#110 = CC_DESIGN_PERSON_AND_ORGANIZATION_ASSIGNMENT ( #62, #316, ( #293 ) ) ;
#111 = ADVANCED_FACE ( 'NONE', ( #150 ), #50, .F. ) ;
#112 = APPROVAL_PERSON_ORGANIZATION ( #108, #269, #73 ) ;
#113 = DIRECTION ( 'NONE',  ( 0.0000000000000000000, 1.000000000000000000, 1.908708192429893100E-016 ) ) ;
#114 = APPROVAL_DATE_TIME ( #220, #269 ) ;
#115 = CARTESIAN_POINT ( 'NONE',  ( 0.0000000000000000000, -1.961855120168452400E-018, 0.08395925086384747900 ) ) ;
#116 = CARTESIAN_POINT ( 'NONE',  ( 0.0000000000000000000, 0.0000000000000000000, 0.07327905629060145500 ) ) ;
#117 = AXIS2_PLACEMENT_3D ( 'NONE', #307, #297, #295 ) ;
#118 = APPROVAL_ROLE ( '' ) ;
#119 = DATE_TIME_ROLE ( 'classification_date' ) ;
#120 = CIRCLE ( 'NONE', #168, 5.905511811023623100 ) ;
#121 = APPLICATION_PROTOCOL_DEFINITION ( 'international standard', 'config_control_design', 1994, #49 ) ;
#122 = DIRECTION ( 'NONE',  ( -0.0000000000000000000, -1.836909530733566100E-016, 1.000000000000000000 ) ) ;
#123 = VERTEX_POINT ( 'NONE', #75 ) ;
#124 = PERSON_AND_ORGANIZATION ( #324, #5 ) ;
#125 = COORDINATED_UNIVERSAL_TIME_OFFSET ( 5, 0, .BEHIND. ) ;
#126 = AXIS2_PLACEMENT_3D ( 'NONE', #47, #2, #113 ) ;
#127 = DIRECTION ( 'NONE',  ( -0.0000000000000000000, -1.836909530733566100E-016, 1.000000000000000000 ) ) ;
#128 = CONICAL_SURFACE ( 'NONE', #17, 0.4944322300693975200, 0.7853981633973256000 ) ;
#129 = ORIENTED_EDGE ( 'NONE', *, *, #261, .T. ) ;
#130 = FACE_OUTER_BOUND ( 'NONE', #289, .T. ) ;
#131 = CARTESIAN_POINT ( 'NONE',  ( 6.123233995736766000E-017, 0.5000000000000000000, 0.07327905629060155200 ) ) ;
#132 = LOCAL_TIME ( 14, 11, 5.000000000000000000, #125 ) ;
#133 = CALENDAR_DATE ( 2018, 1, 6 ) ;
#134 = DATE_AND_TIME ( #133, #132 ) ;
#135 = DIRECTION ( 'NONE',  ( -0.0000000000000000000, -1.836909530733566100E-016, 1.000000000000000000 ) ) ;
#136 = PERSON_AND_ORGANIZATION ( #324, #5 ) ;
#137 = ORIENTED_EDGE ( 'NONE', *, *, #249, .F. ) ;
#138 = EDGE_CURVE ( 'NONE', #310, #28, #216, .T. ) ;
#139 = APPROVAL_PERSON_ORGANIZATION ( #136, #254, #118 ) ;
#140 = DIRECTION ( 'NONE',  ( 0.0000000000000000000, -1.000000000000000000, -1.878145495644180800E-016 ) ) ;
#141 = LINE ( 'NONE', #176, #81 ) ;
#142 = DATE_TIME_ROLE ( 'creation_date' ) ;
#143 = CARTESIAN_POINT ( 'NONE',  ( 0.0000000000000000000, -9.391061551228608700E-019, 0.07839148093324474500 ) ) ;
#144 = VECTOR ( 'NONE', #291, 39.37007874015748100 ) ;
#145 = CARTESIAN_POINT ( 'NONE',  ( 0.0000000000000000000, -9.391061551228608700E-019, 0.07839148093324474500 ) ) ;
#146 = SPHERICAL_SURFACE ( 'NONE', #197, 5.905511811023623100 ) ;
#147 = COORDINATED_UNIVERSAL_TIME_OFFSET ( 5, 0, .BEHIND. ) ;
#148 = AXIS2_PLACEMENT_3D ( 'NONE', #16, #37, #225 ) ;
#149 = CARTESIAN_POINT ( 'NONE',  ( 0.0000000000000000000, -9.391061551228608700E-019, 0.07839148093324474500 ) ) ;
#150 = FACE_OUTER_BOUND ( 'NONE', #57, .T. ) ;
#151 = LOCAL_TIME ( 14, 11, 5.000000000000000000, #147 ) ;
#152 = AXIS2_PLACEMENT_3D ( 'NONE', #91, #330, #54 ) ;
#153 = PERSON_AND_ORGANIZATION_ROLE ( 'creator' ) ;
#154 = ORIENTED_EDGE ( 'NONE', *, *, #264, .F. ) ;
#155 = CALENDAR_DATE ( 2018, 1, 6 ) ;
#156 = DATE_AND_TIME ( #155, #151 ) ;
#157 = APPROVAL_DATE_TIME ( #156, #254 ) ;
#158 = COORDINATED_UNIVERSAL_TIME_OFFSET ( 5, 0, .BEHIND. ) ;
#159 = CC_DESIGN_PERSON_AND_ORGANIZATION_ASSIGNMENT ( #285, #244, ( #180 ) ) ;
#160 = CARTESIAN_POINT ( 'NONE',  ( -6.055048479497935700E-017, -0.4944322300694102300, 0.08395925086384795100 ) ) ;
#161 = DIRECTION ( 'NONE',  ( 0.0000000000000000000, 0.7071067811865400200, -0.7071067811865550100 ) ) ;
#162 = ORIENTED_EDGE ( 'NONE', *, *, #277, .F. ) ;
#163 = ADVANCED_BREP_SHAPE_REPRESENTATION ( '21993-E0W', ( #267, #148 ), #243 ) ;
#164 = CARTESIAN_POINT ( 'NONE',  ( 0.0000000000000000000, 2.409625943910189600E-017, -0.05789920282311279000 ) ) ;
#165 = CONICAL_SURFACE ( 'NONE', #192, 0.4999999999999999400, 0.7853981633974375100 ) ;
#166 = DIRECTION ( 'NONE',  ( -0.0000000000000000000, -1.836909530733566100E-016, 1.000000000000000000 ) ) ;
#167 = DIRECTION ( 'NONE',  ( 0.0000000000000000000, -1.000000000000000000, -1.899295172748516000E-016 ) ) ;
#168 = AXIS2_PLACEMENT_3D ( 'NONE', #31, #27, #23 ) ;
#169 = PERSON_AND_ORGANIZATION ( #324, #5 ) ;
#170 = ORIENTED_EDGE ( 'NONE', *, *, #290, .F. ) ;
#171 = ORIENTED_EDGE ( 'NONE', *, *, #294, .T. ) ;
#172 = FACE_OUTER_BOUND ( 'NONE', #301, .T. ) ;
#173 = AXIS2_PLACEMENT_3D ( 'NONE', #149, #174, #217 ) ;
#174 = DIRECTION ( 'NONE',  ( 0.0000000000000000000, 1.836909530733566100E-016, -1.000000000000000000 ) ) ;
#175 = CIRCLE ( 'NONE', #202, 0.4999999999999999400 ) ;
#176 = CARTESIAN_POINT ( 'NONE',  ( 0.0000000000000000000, -0.5000000000000000000, 0.07327905629060135800 ) ) ;
#177 = CARTESIAN_POINT ( 'NONE',  ( 0.0000000000000000000, -0.4944322300693975200, -0.06346697275371672400 ) ) ;
#178 = ORIENTED_EDGE ( 'NONE', *, *, #249, .T. ) ;
#179 = VERTEX_POINT ( 'NONE', #319 ) ;
#180 = PRODUCT_DEFINITION_FORMATION_WITH_SPECIFIED_SOURCE ( 'ANY', '', #20, .NOT_KNOWN. ) ;
#181 = CARTESIAN_POINT ( 'NONE',  ( 0.0000000000000000000, 0.0000000000000000000, 5.821310552353593500 ) ) ;
#182 = EDGE_LOOP ( 'NONE', ( #1, #250, #21, #262 ) ) ;
#183 = ORIENTED_EDGE ( 'NONE', *, *, #138, .T. ) ;
#184 = AXIS2_PLACEMENT_3D ( 'NONE', #103, #101, #99 ) ;
#185 = CONICAL_SURFACE ( 'NONE', #187, 0.4944322300693975200, 0.7853981633973256000 ) ;
#186 = CALENDAR_DATE ( 2018, 1, 6 ) ;
#187 = AXIS2_PLACEMENT_3D ( 'NONE', #68, #100, #231 ) ;
#188 = DIRECTION ( 'NONE',  ( 1.224646799147353200E-016, 1.000000000000000000, 0.0000000000000000000 ) ) ;
#189 = DIRECTION ( 'NONE',  ( 1.000000000000000000, -1.224646799147353200E-016, -2.249565377136128300E-032 ) ) ;
#190 = CARTESIAN_POINT ( 'NONE',  ( 0.0000000000000000000, 0.0000000000000000000, 5.821310552353593500 ) ) ;
#191 = FACE_OUTER_BOUND ( 'NONE', #234, .T. ) ;
#192 = AXIS2_PLACEMENT_3D ( 'NONE', #107, #97, #89 ) ;
#193 = ORIENTED_EDGE ( 'NONE', *, *, #245, .F. ) ;
#194 = VECTOR ( 'NONE', #127, 39.37007874015748100 ) ;
#195 = COORDINATED_UNIVERSAL_TIME_OFFSET ( 5, 0, .BEHIND. ) ;
#196 = PRODUCT_DEFINITION_SHAPE ( 'NONE', 'NONE',  #293 ) ;
#197 = AXIS2_PLACEMENT_3D ( 'NONE', #59, #38, #22 ) ;
#198 = PERSON_AND_ORGANIZATION ( #324, #5 ) ;
#199 = LOCAL_TIME ( 14, 11, 5.000000000000000000, #36 ) ;
#200 = CARTESIAN_POINT ( 'NONE',  ( 6.123233995736764800E-017, -0.4999999999999999400, 0.07839148093324466200 ) ) ;
#201 = CIRCLE ( 'NONE', #235, 0.5000000000000000000 ) ;
#202 = AXIS2_PLACEMENT_3D ( 'NONE', #145, #122, #79 ) ;
#203 = FACE_OUTER_BOUND ( 'NONE', #26, .T. ) ;
#204 = ORIENTED_EDGE ( 'NONE', *, *, #308, .T. ) ;
#205 = EDGE_LOOP ( 'NONE', ( #193, #56, #61 ) ) ;
#206 = CIRCLE ( 'NONE', #215, 0.4944322300693975200 ) ;
#207 = AXIS2_PLACEMENT_3D ( 'NONE', #190, #189, #188 ) ;
#208 = AXIS2_PLACEMENT_3D ( 'NONE', #181, #210, #266 ) ;
#209 = DIRECTION ( 'NONE',  ( 0.0000000000000000000, -0.7071067811864608600, 0.7071067811866341700 ) ) ;
#210 = DIRECTION ( 'NONE',  ( 1.000000000000000000, 0.0000000000000000000, 0.0000000000000000000 ) ) ;
#211 = LINE ( 'NONE', #131, #194 ) ;
#212 = AXIS2_PLACEMENT_3D ( 'NONE', #98, #256, #140 ) ;
#213 = ORIENTED_EDGE ( 'NONE', *, *, #236, .T. ) ;
#214 = MECHANICAL_CONTEXT ( 'NONE', #229, 'mechanical' ) ;
#215 = AXIS2_PLACEMENT_3D ( 'NONE', #303, #284, #167 ) ;
#216 = CIRCLE ( 'NONE', #117, 0.4944322300693975200 ) ;
#217 = DIRECTION ( 'NONE',  ( 0.0000000000000000000, 1.000000000000000000, 1.707404996040164800E-016 ) ) ;
#218 = ADVANCED_FACE ( 'NONE', ( #55 ), #247, .F. ) ;
#219 = UNCERTAINTY_MEASURE_WITH_UNIT (LENGTH_MEASURE( 1.000000000000000100E-005 ), #9, 'distance_accuracy_value', 'NONE');
#220 = DATE_AND_TIME ( #186, #252 ) ;
#221 = APPROVAL_STATUS ( 'not_yet_approved' ) ;
#222 = APPROVAL_ROLE ( '' ) ;
#223 = LINE ( 'NONE', #200, #144 ) ;
#224 = VERTEX_POINT ( 'NONE', #322 ) ;
#225 = DIRECTION ( 'NONE',  ( 1.000000000000000000, 0.0000000000000000000, 0.0000000000000000000 ) ) ;
#226 = CARTESIAN_POINT ( 'NONE',  ( 0.0000000000000000000, -0.4944322300693946300, -0.06346697275371665500 ) ) ;
#227 = CC_DESIGN_DATE_AND_TIME_ASSIGNMENT ( #41, #142, ( #293 ) ) ;
#228 = CIRCLE ( 'NONE', #78, 0.4944322300693972900 ) ;
#229 = APPLICATION_CONTEXT ( 'configuration controlled 3d designs of mechanical parts and assemblies' ) ;
#230 = ORIENTED_EDGE ( 'NONE', *, *, #281, .F. ) ;
#231 = DIRECTION ( 'NONE',  ( 0.0000000000000000000, -1.000000000000000000, -1.899295172748516000E-016 ) ) ;
#232 = ORIENTED_EDGE ( 'NONE', *, *, #84, .T. ) ;
#233 = CC_DESIGN_PERSON_AND_ORGANIZATION_ASSIGNMENT ( #198, #306, ( #20 ) ) ;
#234 = EDGE_LOOP ( 'NONE', ( #271, #183, #30, #296 ) ) ;
#235 = AXIS2_PLACEMENT_3D ( 'NONE', #164, #263, #8 ) ;
#236 = EDGE_CURVE ( 'NONE', #304, #19, #104, .T. ) ;
#237 = FACE_OUTER_BOUND ( 'NONE', #283, .T. ) ;
#238 = CC_DESIGN_PERSON_AND_ORGANIZATION_ASSIGNMENT ( #29, #153, ( #180 ) ) ;
#239 = APPROVAL_STATUS ( 'not_yet_approved' ) ;
#240 =( NAMED_UNIT ( * ) PLANE_ANGLE_UNIT ( ) SI_UNIT ( $, .RADIAN. ) );
#241 = CC_DESIGN_APPROVAL ( #323, ( #293 ) ) ;
#242 = ADVANCED_FACE ( 'NONE', ( #286 ), #128, .T. ) ;
#243 =( GEOMETRIC_REPRESENTATION_CONTEXT ( 3 ) GLOBAL_UNCERTAINTY_ASSIGNED_CONTEXT ( ( #219 ) ) GLOBAL_UNIT_ASSIGNED_CONTEXT ( ( #9, #240, #7 ) ) REPRESENTATION_CONTEXT ( 'NONE', 'WORKASPACE' ) );
#244 = PERSON_AND_ORGANIZATION_ROLE ( 'design_supplier' ) ;
#245 = EDGE_CURVE ( 'NONE', #312, #310, #51, .T. ) ;
#246 = CC_DESIGN_DATE_AND_TIME_ASSIGNMENT ( #134, #119, ( #93 ) ) ;
#247 = SPHERICAL_SURFACE ( 'NONE', #48, 11.45003937007874100 ) ;
#248 = DIRECTION ( 'NONE',  ( 8.659560562353870400E-017, 0.7071067811864606400, 0.7071067811866343900 ) ) ;
#249 = EDGE_CURVE ( 'NONE', #19, #224, #223, .T. ) ;
#250 = ORIENTED_EDGE ( 'NONE', *, *, #277, .T. ) ;
#251 = ORIENTED_EDGE ( 'NONE', *, *, #76, .T. ) ;
#252 = LOCAL_TIME ( 14, 11, 5.000000000000000000, #158 ) ;
#253 = CC_DESIGN_APPROVAL ( #269, ( #180 ) ) ;
#254 = APPROVAL ( #239, 'UNSPECIFIED' ) ;
#255 = DIRECTION ( 'NONE',  ( 0.0000000000000000000, -1.000000000000000000, -1.726631975225924500E-016 ) ) ;
#256 = DIRECTION ( 'NONE',  ( -0.0000000000000000000, -1.836909530733566100E-016, 1.000000000000000000 ) ) ;
#257 = CLOSED_SHELL ( 'NONE', ( #83, #87, #242, #260, #218, #111, #326, #40, #11, #298 ) ) ;
#258 = DIRECTION ( 'NONE',  ( 0.0000000000000000000, -1.000000000000000000, -1.707404996040164800E-016 ) ) ;
#259 = CARTESIAN_POINT ( 'NONE',  ( 6.123233995736766000E-017, 0.5000000000000000000, -0.05789920282311269300 ) ) ;
#260 = ADVANCED_FACE ( 'NONE', ( #237 ), #53, .T. ) ;
#261 = EDGE_CURVE ( 'NONE', #318, #224, #141, .T. ) ;
#262 = ORIENTED_EDGE ( 'NONE', *, *, #261, .F. ) ;
#263 = DIRECTION ( 'NONE',  ( -0.0000000000000000000, -1.836909530733566100E-016, 1.000000000000000000 ) ) ;
#264 = EDGE_CURVE ( 'NONE', #179, #224, #70, .T. ) ;
#265 = PERSON_AND_ORGANIZATION_ROLE ( 'classification_officer' ) ;
#266 = DIRECTION ( 'NONE',  ( 0.0000000000000000000, -1.000000000000000000, -1.850371707708594100E-016 ) ) ;
#267 = MANIFOLD_SOLID_BREP ( '21993-001-1-solid1', #257 ) ;
#268 = ORIENTED_EDGE ( 'NONE', *, *, #13, .T. ) ;
#269 = APPROVAL ( #313, 'UNSPECIFIED' ) ;
#270 = ORIENTED_EDGE ( 'NONE', *, *, #72, .T. ) ;
#271 = ORIENTED_EDGE ( 'NONE', *, *, #72, .F. ) ;
#272 = DIRECTION ( 'NONE',  ( -1.224646799147353200E-016, -1.000000000000000000, 0.0000000000000000000 ) ) ;
#273 = EDGE_CURVE ( 'NONE', #28, #318, #82, .T. ) ;
#274 = CIRCLE ( 'NONE', #327, 0.4944322300693972900 ) ;
#275 = DIRECTION ( 'NONE',  ( -1.000000000000000000, 1.224646799147353200E-016, 2.249565377136128300E-032 ) ) ;
#276 = CARTESIAN_POINT ( 'NONE',  ( 0.0000000000000000000, 0.0000000000000000000, 11.52331842636934300 ) ) ;
#277 = EDGE_CURVE ( 'NONE', #18, #179, #211, .T. ) ;
#278 = ORIENTED_EDGE ( 'NONE', *, *, #290, .T. ) ;
#279 = CYLINDRICAL_SURFACE ( 'NONE', #212, 0.5000000000000000000 ) ;
#280 = ORIENTED_EDGE ( 'NONE', *, *, #34, .F. ) ;
#281 = EDGE_CURVE ( 'NONE', #123, #19, #228, .T. ) ;
#282 = CARTESIAN_POINT ( 'NONE',  ( 0.0000000000000000000, 2.511900840414769300E-017, -0.06346697275371662700 ) ) ;
#283 = EDGE_LOOP ( 'NONE', ( #96, #15, #95 ) ) ;
#284 = DIRECTION ( 'NONE',  ( -0.0000000000000000000, -1.836909530733566100E-016, 1.000000000000000000 ) ) ;
#285 = PERSON_AND_ORGANIZATION ( #324, #5 ) ;
#286 = FACE_OUTER_BOUND ( 'NONE', #35, .T. ) ;
#287 = DIRECTION ( 'NONE',  ( -0.0000000000000000000, -1.836909530733566100E-016, 1.000000000000000000 ) ) ;
#288 = DIRECTION ( 'NONE',  ( 0.0000000000000000000, -1.000000000000000000, -1.899295172748516000E-016 ) ) ;
#289 = EDGE_LOOP ( 'NONE', ( #292, #178, #251, #329 ) ) ;
#290 = EDGE_CURVE ( 'NONE', #304, #123, #4, .T. ) ;
#291 = DIRECTION ( 'NONE',  ( 8.659560562354839200E-017, -0.7071067811865398000, -0.7071067811865552300 ) ) ;
#292 = ORIENTED_EDGE ( 'NONE', *, *, #308, .F. ) ;
#293 = PRODUCT_DEFINITION ( 'UNKNOWN', '', #180, #314 ) ;
#294 = EDGE_CURVE ( 'NONE', #123, #179, #46, .T. ) ;
#295 = DIRECTION ( 'NONE',  ( 0.0000000000000000000, -1.000000000000000000, -1.899295172748516000E-016 ) ) ;
#296 = ORIENTED_EDGE ( 'NONE', *, *, #84, .F. ) ;
#297 = DIRECTION ( 'NONE',  ( -0.0000000000000000000, -1.836909530733566100E-016, 1.000000000000000000 ) ) ;
#298 = ADVANCED_FACE ( 'NONE', ( #203 ), #165, .T. ) ;
#299 = SECURITY_CLASSIFICATION_LEVEL ( 'unclassified' ) ;
#300 = SHAPE_DEFINITION_REPRESENTATION ( #196, #163 ) ;
#301 = EDGE_LOOP ( 'NONE', ( #162, #232, #129, #154 ) ) ;
#302 = DIMENSIONAL_EXPONENTS ( 1.000000000000000000, 0.0000000000000000000, 0.0000000000000000000, 0.0000000000000000000, 0.0000000000000000000, 0.0000000000000000000, 0.0000000000000000000 ) ;
#303 = CARTESIAN_POINT ( 'NONE',  ( 0.0000000000000000000, 2.511900840414769300E-017, -0.06346697275371662700 ) ) ;
#304 = VERTEX_POINT ( 'NONE', #69 ) ;
#305 = APPROVAL_PERSON_ORGANIZATION ( #169, #323, #222 ) ;
#306 = PERSON_AND_ORGANIZATION_ROLE ( 'design_owner' ) ;
#307 = CARTESIAN_POINT ( 'NONE',  ( 0.0000000000000000000, 2.511900840414769300E-017, -0.06346697275371662700 ) ) ;
#308 = EDGE_CURVE ( 'NONE', #19, #123, #274, .T. ) ;
#309 = FACE_OUTER_BOUND ( 'NONE', #182, .T. ) ;
#310 = VERTEX_POINT ( 'NONE', #63 ) ;
#311 = DIRECTION ( 'NONE',  ( 0.0000000000000000000, 1.000000000000000000, 1.908708192429893100E-016 ) ) ;
#312 = VERTEX_POINT ( 'NONE', #64 ) ;
#313 = APPROVAL_STATUS ( 'not_yet_approved' ) ;
#314 = DESIGN_CONTEXT ( 'detailed design', #49, 'design' ) ;
#315 = CARTESIAN_POINT ( 'NONE',  ( 6.055048479497754500E-017, 0.4944322300693975200, -0.06346697275371653000 ) ) ;
#316 = PERSON_AND_ORGANIZATION_ROLE ( 'creator' ) ;
#317 = LINE ( 'NONE', #315, #14 ) ;
#318 = VERTEX_POINT ( 'NONE', #39 ) ;
#319 = CARTESIAN_POINT ( 'NONE',  ( 6.123233995736764800E-017, 0.4999999999999999400, 0.07839148093324484200 ) ) ;
#320 = EDGE_CURVE ( 'NONE', #312, #28, #120, .T. ) ;
#321 = AXIS2_PLACEMENT_3D ( 'NONE', #143, #135, #258 ) ;
#322 = CARTESIAN_POINT ( 'NONE',  ( 0.0000000000000000000, -0.4999999999999999400, 0.07839148093324466200 ) ) ;
#323 = APPROVAL ( #221, 'UNSPECIFIED' ) ;
#324 = PERSON ( 'UNSPECIFIED', 'UNSPECIFIED', 'UNSPECIFIED', ('UNSPECIFIED'), ('UNSPECIFIED'), ('UNSPECIFIED') ) ;
#325 = DIRECTION ( 'NONE',  ( -1.000000000000000000, 0.0000000000000000000, 0.0000000000000000000 ) ) ;
#326 = ADVANCED_FACE ( 'NONE', ( #10 ), #146, .T. ) ;
#327 = AXIS2_PLACEMENT_3D ( 'NONE', #58, #52, #43 ) ;
#328 = PRODUCT_RELATED_PRODUCT_CATEGORY ( 'detail', '', ( #20 ) ) ;
#329 = ORIENTED_EDGE ( 'NONE', *, *, #294, .F. ) ;
#330 = DIRECTION ( 'NONE',  ( -0.0000000000000000000, -1.836909530733566100E-016, 1.000000000000000000 ) ) ;
ENDSEC;
END-ISO-10303-21;
