ISO-10303-21;
HEADER;
FILE_DESCRIPTION (( 'STEP AP203' ),
    '1' );
FILE_NAME ('Web Model 47684_15971.step',
    '2020-10-07T17:28:31',
    ( '' ),
    ( '' ),
    'SwSTEP 2.0',
    'SolidWorks 2018',
    '' );
FILE_SCHEMA (( 'CONFIG_CONTROL_DESIGN' ));
ENDSEC;

DATA;
#1 = DIRECTION ( 'NONE',  ( 0.0000000000000000000, 0.0000000000000000000, 1.000000000000000000 ) ) ;
#2 = CARTESIAN_POINT ( 'NONE',  ( 0.0000000000000000000, 0.0000000000000000000, -1.500000000000000000 ) ) ;
#3 = CARTESIAN_POINT ( 'NONE',  ( -25.00000000000000000, 0.0000000000000000000, -1.500000000000000000 ) ) ;
#4 = EDGE_CURVE ( 'NONE', #27, #175, #124, .T. ) ;
#5 = CARTESIAN_POINT ( 'NONE',  ( 0.0000000000000000000, 0.0000000000000000000, 1.500000000000000000 ) ) ;
#6 = DATE_AND_TIME ( #168, #160 ) ;
#7 = PERSON_AND_ORGANIZATION ( #46, #80 ) ;
#8 = AXIS2_PLACEMENT_3D ( 'NONE', #60, #76, #15 ) ;
#9 = LINE ( 'NONE', #91, #152 ) ;
#10 = EDGE_LOOP ( 'NONE', ( #64, #118, #90, #57 ) ) ;
#11 = CALENDAR_DATE ( 2020, 7, 10 ) ;
#12 = VECTOR ( 'NONE', #105, 1000.000000000000000 ) ;
#13 = ADVANCED_FACE ( 'NONE', ( #142 ), #93, .T. ) ;
#14 = AXIS2_PLACEMENT_3D ( 'NONE', #5, #106, #171 ) ;
#15 = DIRECTION ( 'NONE',  ( 1.000000000000000000, 0.0000000000000000000, -0.0000000000000000000 ) ) ;
#16 = DIRECTION ( 'NONE',  ( -0.0000000000000000000, -0.0000000000000000000, -1.000000000000000000 ) ) ;
#17 = FACE_OUTER_BOUND ( 'NONE', #136, .T. ) ;
#18 = CC_DESIGN_DATE_AND_TIME_ASSIGNMENT ( #32, #132, ( #112 ) ) ;
#19 = DIRECTION ( 'NONE',  ( 0.0000000000000000000, 0.0000000000000000000, 1.000000000000000000 ) ) ;
#20 = DIRECTION ( 'NONE',  ( -1.000000000000000000, 0.0000000000000000000, 0.0000000000000000000 ) ) ;
#21 = CC_DESIGN_PERSON_AND_ORGANIZATION_ASSIGNMENT ( #72, #81, ( #173 ) ) ;
#22 = ORIENTED_EDGE ( 'NONE', *, *, #30, .F. ) ;
#23 = APPLICATION_PROTOCOL_DEFINITION ( 'international standard', 'config_control_design', 1994, #67 ) ;
#24 = APPROVAL_ROLE ( '' ) ;
#25 = CLOSED_SHELL ( 'NONE', ( #34, #31, #13, #33 ) ) ;
#26 = CC_DESIGN_DATE_AND_TIME_ASSIGNMENT ( #174, #41, ( #163 ) ) ;
#27 = VERTEX_POINT ( 'NONE', #153 ) ;
#28 = DESIGN_CONTEXT ( 'detailed design', #67, 'design' ) ;
#29 = EDGE_CURVE ( 'NONE', #27, #101, #71, .T. ) ;
#30 = EDGE_CURVE ( 'NONE', #175, #39, #149, .T. ) ;
#31 = ADVANCED_FACE ( 'NONE', ( #99 ), #89, .T. ) ;
#32 = DATE_AND_TIME ( #133, #111 ) ;
#33 = ADVANCED_FACE ( 'NONE', ( #17 ), #166, .F. ) ;
#34 = ADVANCED_FACE ( 'NONE', ( #52 ), #117, .T. ) ;
#35 = CARTESIAN_POINT ( 'NONE',  ( 0.0000000000000000000, 0.0000000000000000000, 1.500000000000000000 ) ) ;
#36 = CARTESIAN_POINT ( 'NONE',  ( 0.0000000000000000000, 0.0000000000000000000, -1.500000000000000000 ) ) ;
#37 = AXIS2_PLACEMENT_3D ( 'NONE', #110, #78, #109 ) ;
#38 = COORDINATED_UNIVERSAL_TIME_OFFSET ( 5, 0, .BEHIND. ) ;
#39 = VERTEX_POINT ( 'NONE', #137 ) ;
#40 = ORIENTED_EDGE ( 'NONE', *, *, #161, .F. ) ;
#41 = DATE_TIME_ROLE ( 'creation_date' ) ;
#42 = PERSON_AND_ORGANIZATION_ROLE ( 'design_supplier' ) ;
#43 = ORIENTED_EDGE ( 'NONE', *, *, #30, .T. ) ;
#44 = APPROVAL ( #97, 'UNSPECIFIED' ) ;
#45 = CIRCLE ( 'NONE', #14, 25.00000000000000000 ) ;
#46 = PERSON ( 'UNSPECIFIED', 'UNSPECIFIED', 'UNSPECIFIED', ('UNSPECIFIED'), ('UNSPECIFIED'), ('UNSPECIFIED') ) ;
#47 = DIRECTION ( 'NONE',  ( -1.000000000000000000, 0.0000000000000000000, 0.0000000000000000000 ) ) ;
#48 = AXIS2_PLACEMENT_3D ( 'NONE', #165, #1, #103 ) ;
#49 = COORDINATED_UNIVERSAL_TIME_OFFSET ( 5, 0, .BEHIND. ) ;
#50 = CC_DESIGN_APPROVAL ( #44, ( #55 ) ) ;
#51 = APPROVAL_STATUS ( 'not_yet_approved' ) ;
#52 = FACE_OUTER_BOUND ( 'NONE', #10, .T. ) ;
#53 = PERSON_AND_ORGANIZATION_ROLE ( 'classification_officer' ) ;
#54 =( NAMED_UNIT ( * ) SI_UNIT ( $, .STERADIAN. ) SOLID_ANGLE_UNIT ( ) );
#55 = PRODUCT_DEFINITION_FORMATION_WITH_SPECIFIED_SOURCE ( 'ANY', '', #173, .NOT_KNOWN. ) ;
#56 = DATE_AND_TIME ( #79, #159 ) ;
#57 = ORIENTED_EDGE ( 'NONE', *, *, #4, .F. ) ;
#58 = AXIS2_PLACEMENT_3D ( 'NONE', #35, #127, #47 ) ;
#59 = COORDINATED_UNIVERSAL_TIME_OFFSET ( 5, 0, .BEHIND. ) ;
#60 = CARTESIAN_POINT ( 'NONE',  ( 0.0000000000000000000, 0.0000000000000000000, -1.500000000000000000 ) ) ;
#61 = CC_DESIGN_PERSON_AND_ORGANIZATION_ASSIGNMENT ( #113, #65, ( #163 ) ) ;
#62 = COORDINATED_UNIVERSAL_TIME_OFFSET ( 5, 0, .BEHIND. ) ;
#63 = CARTESIAN_POINT ( 'NONE',  ( 0.0000000000000000000, 0.0000000000000000000, 1.500000000000000000 ) ) ;
#64 = ORIENTED_EDGE ( 'NONE', *, *, #150, .F. ) ;
#65 = PERSON_AND_ORGANIZATION_ROLE ( 'creator' ) ;
#66 = APPROVAL_PERSON_ORGANIZATION ( #102, #135, #98 ) ;
#67 = APPLICATION_CONTEXT ( 'configuration controlled 3d designs of mechanical parts and assemblies' ) ;
#68 = EDGE_LOOP ( 'NONE', ( #73, #82 ) ) ;
#69 = CC_DESIGN_PERSON_AND_ORGANIZATION_ASSIGNMENT ( #7, #83, ( #55 ) ) ;
#70 = APPROVAL_DATE_TIME ( #156, #135 ) ;
#71 = CIRCLE ( 'NONE', #86, 25.00000000000000000 ) ;
#72 = PERSON_AND_ORGANIZATION ( #46, #80 ) ;
#73 = ORIENTED_EDGE ( 'NONE', *, *, #29, .T. ) ;
#74 = AXIS2_PLACEMENT_3D ( 'NONE', #36, #167, #92 ) ;
#75 = LOCAL_TIME ( 13, 28, 31.00000000000000000, #116 ) ;
#76 = DIRECTION ( 'NONE',  ( 0.0000000000000000000, 0.0000000000000000000, 1.000000000000000000 ) ) ;
#77 = DIRECTION ( 'NONE',  ( 0.0000000000000000000, 0.0000000000000000000, 1.000000000000000000 ) ) ;
#78 = DIRECTION ( 'NONE',  ( 0.0000000000000000000, 0.0000000000000000000, 1.000000000000000000 ) ) ;
#79 = CALENDAR_DATE ( 2020, 7, 10 ) ;
#80 = ORGANIZATION ( 'UNSPECIFIED', 'UNSPECIFIED', '' ) ;
#81 = PERSON_AND_ORGANIZATION_ROLE ( 'design_owner' ) ;
#82 = ORIENTED_EDGE ( 'NONE', *, *, #150, .T. ) ;
#83 = PERSON_AND_ORGANIZATION_ROLE ( 'creator' ) ;
#84 = APPROVAL_ROLE ( '' ) ;
#85 = CIRCLE ( 'NONE', #74, 25.00000000000000000 ) ;
#86 = AXIS2_PLACEMENT_3D ( 'NONE', #115, #77, #155 ) ;
#87 = APPROVAL_PERSON_ORGANIZATION ( #121, #44, #84 ) ;
#88 = AXIS2_PLACEMENT_3D ( 'NONE', #2, #19, #169 ) ;
#89 = CYLINDRICAL_SURFACE ( 'NONE', #158, 25.00000000000000000 ) ;
#90 = ORIENTED_EDGE ( 'NONE', *, *, #108, .T. ) ;
#91 = CARTESIAN_POINT ( 'NONE',  ( 25.00000000000000000, 3.061616997868383043E-15, 1.500000000000000000 ) ) ;
#92 = DIRECTION ( 'NONE',  ( 1.000000000000000000, 0.0000000000000000000, 0.0000000000000000000 ) ) ;
#93 = PLANE ( 'NONE',  #48 ) ;
#94 =( NAMED_UNIT ( * ) PLANE_ANGLE_UNIT ( ) SI_UNIT ( $, .RADIAN. ) );
#95 = LOCAL_TIME ( 13, 28, 31.00000000000000000, #62 ) ;
#96 = ORIENTED_EDGE ( 'NONE', *, *, #108, .F. ) ;
#97 = APPROVAL_STATUS ( 'not_yet_approved' ) ;
#98 = APPROVAL_ROLE ( '' ) ;
#99 = FACE_OUTER_BOUND ( 'NONE', #129, .T. ) ;
#100 = CC_DESIGN_PERSON_AND_ORGANIZATION_ASSIGNMENT ( #148, #42, ( #55 ) ) ;
#101 = VERTEX_POINT ( 'NONE', #154 ) ;
#102 = PERSON_AND_ORGANIZATION ( #46, #80 ) ;
#103 = DIRECTION ( 'NONE',  ( 1.000000000000000000, 0.0000000000000000000, -0.0000000000000000000 ) ) ;
#104 = PRODUCT_DEFINITION_SHAPE ( 'NONE', 'NONE',  #163 ) ;
#105 = DIRECTION ( 'NONE',  ( -0.0000000000000000000, -0.0000000000000000000, -1.000000000000000000 ) ) ;
#106 = DIRECTION ( 'NONE',  ( 0.0000000000000000000, 0.0000000000000000000, 1.000000000000000000 ) ) ;
#107 = CARTESIAN_POINT ( 'NONE',  ( -25.00000000000000000, 0.0000000000000000000, 1.500000000000000000 ) ) ;
#108 = EDGE_CURVE ( 'NONE', #39, #175, #85, .T. ) ;
#109 = DIRECTION ( 'NONE',  ( 1.000000000000000000, 0.0000000000000000000, 0.0000000000000000000 ) ) ;
#110 = CARTESIAN_POINT ( 'NONE',  ( 0.0000000000000000000, 0.0000000000000000000, 0.0000000000000000000 ) ) ;
#111 = LOCAL_TIME ( 13, 28, 31.00000000000000000, #38 ) ;
#112 = SECURITY_CLASSIFICATION ( '', '', #120 ) ;
#113 = PERSON_AND_ORGANIZATION ( #46, #80 ) ;
#114 = DIRECTION ( 'NONE',  ( -0.0000000000000000000, -0.0000000000000000000, -1.000000000000000000 ) ) ;
#115 = CARTESIAN_POINT ( 'NONE',  ( 0.0000000000000000000, 0.0000000000000000000, 1.500000000000000000 ) ) ;
#116 = COORDINATED_UNIVERSAL_TIME_OFFSET ( 5, 0, .BEHIND. ) ;
#117 = CYLINDRICAL_SURFACE ( 'NONE', #58, 25.00000000000000000 ) ;
#118 = ORIENTED_EDGE ( 'NONE', *, *, #161, .T. ) ;
#119 = CC_DESIGN_SECURITY_CLASSIFICATION ( #112, ( #55 ) ) ;
#120 = SECURITY_CLASSIFICATION_LEVEL ( 'unclassified' ) ;
#121 = PERSON_AND_ORGANIZATION ( #46, #80 ) ;
#122 = APPLICATION_CONTEXT ( 'configuration controlled 3d designs of mechanical parts and assemblies' ) ;
#123 = APPROVAL ( #51, 'UNSPECIFIED' ) ;
#124 = LINE ( 'NONE', #107, #12 ) ;
#125 = MANIFOLD_SOLID_BREP ( 'Boss-Extrude1', #25 ) ;
#126 = ORIENTED_EDGE ( 'NONE', *, *, #29, .F. ) ;
#127 = DIRECTION ( 'NONE',  ( -0.0000000000000000000, -0.0000000000000000000, -1.000000000000000000 ) ) ;
#128 = CC_DESIGN_PERSON_AND_ORGANIZATION_ASSIGNMENT ( #143, #53, ( #112 ) ) ;
#129 = EDGE_LOOP ( 'NONE', ( #40, #126, #146, #43 ) ) ;
#130 = MECHANICAL_CONTEXT ( 'NONE', #122, 'mechanical' ) ;
#131 = CC_DESIGN_APPROVAL ( #123, ( #163 ) ) ;
#132 = DATE_TIME_ROLE ( 'classification_date' ) ;
#133 = CALENDAR_DATE ( 2020, 7, 10 ) ;
#134 = SHAPE_DEFINITION_REPRESENTATION ( #104, #138 ) ;
#135 = APPROVAL ( #170, 'UNSPECIFIED' ) ;
#136 = EDGE_LOOP ( 'NONE', ( #22, #96 ) ) ;
#137 = CARTESIAN_POINT ( 'NONE',  ( 25.00000000000000000, 3.061616997868383043E-15, -1.500000000000000000 ) ) ;
#138 = ADVANCED_BREP_SHAPE_REPRESENTATION ( 'Web Model 47684_15971', ( #125, #37 ), #141 ) ;
#139 = PRODUCT_RELATED_PRODUCT_CATEGORY ( 'detail', '', ( #173 ) ) ;
#140 = APPROVAL_DATE_TIME ( #56, #44 ) ;
#141 =( GEOMETRIC_REPRESENTATION_CONTEXT ( 3 ) GLOBAL_UNCERTAINTY_ASSIGNED_CONTEXT ( ( #144 ) ) GLOBAL_UNIT_ASSIGNED_CONTEXT ( ( #145, #94, #54 ) ) REPRESENTATION_CONTEXT ( 'NONE', 'WORKASPACE' ) );
#142 = FACE_OUTER_BOUND ( 'NONE', #68, .T. ) ;
#143 = PERSON_AND_ORGANIZATION ( #46, #80 ) ;
#144 = UNCERTAINTY_MEASURE_WITH_UNIT (LENGTH_MEASURE( 1.000000000000000082E-05 ), #145, 'distance_accuracy_value', 'NONE');
#145 =( LENGTH_UNIT ( ) NAMED_UNIT ( * ) SI_UNIT ( .MILLI., .METRE. ) );
#146 = ORIENTED_EDGE ( 'NONE', *, *, #4, .T. ) ;
#147 = CALENDAR_DATE ( 2020, 7, 10 ) ;
#148 = PERSON_AND_ORGANIZATION ( #46, #80 ) ;
#149 = CIRCLE ( 'NONE', #88, 25.00000000000000000 ) ;
#150 = EDGE_CURVE ( 'NONE', #101, #27, #45, .T. ) ;
#151 = APPROVAL_DATE_TIME ( #6, #123 ) ;
#152 = VECTOR ( 'NONE', #16, 1000.000000000000000 ) ;
#153 = CARTESIAN_POINT ( 'NONE',  ( -25.00000000000000000, 0.0000000000000000000, 1.500000000000000000 ) ) ;
#154 = CARTESIAN_POINT ( 'NONE',  ( 25.00000000000000000, 3.061616997868383043E-15, 1.500000000000000000 ) ) ;
#155 = DIRECTION ( 'NONE',  ( 1.000000000000000000, 0.0000000000000000000, 0.0000000000000000000 ) ) ;
#156 = DATE_AND_TIME ( #147, #95 ) ;
#157 = APPLICATION_PROTOCOL_DEFINITION ( 'international standard', 'config_control_design', 1994, #122 ) ;
#158 = AXIS2_PLACEMENT_3D ( 'NONE', #63, #114, #20 ) ;
#159 = LOCAL_TIME ( 13, 28, 31.00000000000000000, #49 ) ;
#160 = LOCAL_TIME ( 13, 28, 31.00000000000000000, #59 ) ;
#161 = EDGE_CURVE ( 'NONE', #101, #39, #9, .T. ) ;
#162 = CC_DESIGN_APPROVAL ( #135, ( #112 ) ) ;
#163 = PRODUCT_DEFINITION ( 'UNKNOWN', '', #55, #28 ) ;
#164 = APPROVAL_PERSON_ORGANIZATION ( #172, #123, #24 ) ;
#165 = CARTESIAN_POINT ( 'NONE',  ( 0.0000000000000000000, 0.0000000000000000000, 1.500000000000000000 ) ) ;
#166 = PLANE ( 'NONE',  #8 ) ;
#167 = DIRECTION ( 'NONE',  ( 0.0000000000000000000, 0.0000000000000000000, 1.000000000000000000 ) ) ;
#168 = CALENDAR_DATE ( 2020, 7, 10 ) ;
#169 = DIRECTION ( 'NONE',  ( 1.000000000000000000, 0.0000000000000000000, 0.0000000000000000000 ) ) ;
#170 = APPROVAL_STATUS ( 'not_yet_approved' ) ;
#171 = DIRECTION ( 'NONE',  ( 1.000000000000000000, 0.0000000000000000000, 0.0000000000000000000 ) ) ;
#172 = PERSON_AND_ORGANIZATION ( #46, #80 ) ;
#173 = PRODUCT ( 'Web Model 47684_15971', 'Web Model 47684_15971', '', ( #130 ) ) ;
#174 = DATE_AND_TIME ( #11, #75 ) ;
#175 = VERTEX_POINT ( 'NONE', #3 ) ;
ENDSEC;
END-ISO-10303-21;
