ISO-10303-21;
HEADER;
FILE_DESCRIPTION (( 'STEP AP203' ),
    '1' );
FILE_NAME ('TTN049381-E0W.STEP',
    '2016-07-25T14:36:35',
    ( 'admin' ),
    ( '' ),
    'SwSTEP 2.0',
    'SolidWorks 2016',
    '' );
FILE_SCHEMA (( 'CONFIG_CONTROL_DESIGN' ));
ENDSEC;

DATA;
#1 = AXIS2_PLACEMENT_3D ( 'NONE', #170, #3, #31 ) ;
#2 = ORIENTED_EDGE ( 'NONE', *, *, #136, .F. ) ;
#3 = DIRECTION ( 'NONE',  ( -0.0000000000000000000, 3.061515884555943100E-016, -1.000000000000000000 ) ) ;
#4 = DATE_AND_TIME ( #44, #241 ) ;
#5 = CONICAL_SURFACE ( 'NONE', #217, 0.5000000000000000000, 0.7748378039880899900 ) ;
#6 = LOCAL_TIME ( 10, 36, 35.00000000000000000, #15 ) ;
#7 = LINE ( 'NONE', #40, #143 ) ;
#8 = EDGE_CURVE ( 'NONE', #253, #193, #267, .T. ) ;
#9 = CARTESIAN_POINT ( 'NONE',  ( 0.0000000000000000000, 2.863457502607032100E-015, -23.59645669291338900 ) ) ;
#10 = CARTESIAN_POINT ( 'NONE',  ( 6.075019554825453600E-017, 0.4921259842519686800, -0.07874015748031487600 ) ) ;
#11 = COORDINATED_UNIVERSAL_TIME_OFFSET ( 5, 0, .BEHIND. ) ;
#12 = AXIS2_PLACEMENT_3D ( 'NONE', #105, #257, #106 ) ;
#13 = DIRECTION ( 'NONE',  ( 0.0000000000000000000, 1.000000000000000000, 3.692435435686892600E-016 ) ) ;
#14 = CARTESIAN_POINT ( 'NONE',  ( 0.0000000000000000000, -0.4921259842519686800, -0.07874015748031518200 ) ) ;
#15 = COORDINATED_UNIVERSAL_TIME_OFFSET ( 5, 0, .BEHIND. ) ;
#16 =( LENGTH_UNIT ( ) NAMED_UNIT ( * ) SI_UNIT ( $, .METRE. ) );
#17 = APPROVAL_STATUS ( 'not_yet_approved' ) ;
#18 = CARTESIAN_POINT ( 'NONE',  ( 0.0000000000000000000, 2.863457502607032100E-015, -23.59645669291338900 ) ) ;
#19 = AXIS2_PLACEMENT_3D ( 'NONE', #229, #55, #230 ) ;
#20 = FACE_OUTER_BOUND ( 'NONE', #279, .T. ) ;
#21 = CARTESIAN_POINT ( 'NONE',  ( 0.0000000000000000000, 0.4921290493712704400, 0.07362473710406032500 ) ) ;
#22 = PERSON_AND_ORGANIZATION ( #26, #72 ) ;
#23 = EDGE_CURVE ( 'NONE', #121, #126, #192, .T. ) ;
#24 = ADVANCED_FACE ( 'NONE', ( #166 ), #239, .T. ) ;
#25 = ORIENTED_EDGE ( 'NONE', *, *, #152, .F. ) ;
#26 = PERSON ( 'UNSPECIFIED', 'UNSPECIFIED', 'UNSPECIFIED', ('UNSPECIFIED'), ('UNSPECIFIED'), ('UNSPECIFIED') ) ;
#27 = CONICAL_SURFACE ( 'NONE', #19, 0.5000000000000000000, 0.7748378039880899900 ) ;
#28 = ADVANCED_FACE ( 'NONE', ( #297 ), #189, .T. ) ;
#29 = CC_DESIGN_PERSON_AND_ORGANIZATION_ASSIGNMENT ( #203, #134, ( #117 ) ) ;
#30 = CALENDAR_DATE ( 2016, 25, 7 ) ;
#31 = DIRECTION ( 'NONE',  ( 0.0000000000000000000, 1.000000000000000000, 3.073328992872296400E-016 ) ) ;
#32 = ORIENTED_EDGE ( 'NONE', *, *, #8, .T. ) ;
#33 = LINE ( 'NONE', #252, #268 ) ;
#34 = CARTESIAN_POINT ( 'NONE',  ( 0.0000000000000000000, 2.863457502607032100E-015, -23.59645669291338900 ) ) ;
#35 = DIRECTION ( 'NONE',  ( 0.0000000000000000000, -3.061515884555943100E-016, 1.000000000000000000 ) ) ;
#36 = CALENDAR_DATE ( 2016, 25, 7 ) ;
#37 = CIRCLE ( 'NONE', #94, 23.67519685039370400 ) ;
#38 = AXIS2_PLACEMENT_3D ( 'NONE', #9, #201, #294 ) ;
#39 = CARTESIAN_POINT ( 'NONE',  ( 0.0000000000000000000, 1.239070208395084800E-017, -0.07874015748031502900 ) ) ;
#40 = CARTESIAN_POINT ( 'NONE',  ( 0.0000000000000000000, 0.5000000000000000000, -0.07874015748031480700 ) ) ;
#41 = CALENDAR_DATE ( 2016, 25, 7 ) ;
#42 = ORIENTED_EDGE ( 'NONE', *, *, #301, .T. ) ;
#43 = DIRECTION ( 'NONE',  ( 0.0000000000000000000, -1.000000000000000000, -3.122502256758251800E-016 ) ) ;
#44 = CALENDAR_DATE ( 2016, 25, 7 ) ;
#45 = PRODUCT_DEFINITION_SHAPE ( 'NONE', 'NONE',  #50 ) ;
#46 =( NAMED_UNIT ( * ) PLANE_ANGLE_UNIT ( ) SI_UNIT ( $, .RADIAN. ) );
#47 = PERSON_AND_ORGANIZATION_ROLE ( 'creator' ) ;
#48 = EDGE_CURVE ( 'NONE', #162, #121, #219, .T. ) ;
#49 = UNCERTAINTY_MEASURE_WITH_UNIT (LENGTH_MEASURE( 1.000000000000000100E-005 ), #182, 'distance_accuracy_value', 'NONE');
#50 = PRODUCT_DEFINITION ( 'UNKNOWN', '', #119, #172 ) ;
#51 = VECTOR ( 'NONE', #82, 39.37007874015748100 ) ;
#52 = ORIENTED_EDGE ( 'NONE', *, *, #8, .F. ) ;
#53 = DIRECTION ( 'NONE',  ( 0.0000000000000000000, -3.061515884555943100E-016, 1.000000000000000000 ) ) ;
#54 = CARTESIAN_POINT ( 'NONE',  ( 0.0000000000000000000, 9.980059655166675400E-018, -0.07086614173228365800 ) ) ;
#55 = DIRECTION ( 'NONE',  ( -0.0000000000000000000, 3.061515884555921500E-016, -1.000000000000000000 ) ) ;
#56 = EDGE_CURVE ( 'NONE', #193, #253, #211, .T. ) ;
#57 = DIRECTION ( 'NONE',  ( 0.0000000000000000000, 1.000000000000000000, 3.122502256758251800E-016 ) ) ;
#58 = CARTESIAN_POINT ( 'NONE',  ( 6.123233995736766000E-017, -0.5000000000000000000, 0.06558576573476958300 ) ) ;
#59 = ORIENTED_EDGE ( 'NONE', *, *, #301, .F. ) ;
#60 = APPROVAL ( #17, 'UNSPECIFIED' ) ;
#61 = CARTESIAN_POINT ( 'NONE',  ( 0.0000000000000000000, -3.179490856366848300E-017, 0.06558576573476966600 ) ) ;
#62 = LENGTH_MEASURE_WITH_UNIT ( LENGTH_MEASURE( 0.02539999999999999900 ), #16 );
#63 = PERSON_AND_ORGANIZATION ( #26, #72 ) ;
#64 = VECTOR ( 'NONE', #96, 39.37007874015748100 ) ;
#65 = APPROVAL_STATUS ( 'not_yet_approved' ) ;
#66 = AXIS2_PLACEMENT_3D ( 'NONE', #287, #165, #87 ) ;
#67 = LOCAL_TIME ( 10, 36, 35.00000000000000000, #208 ) ;
#68 = ORIENTED_EDGE ( 'NONE', *, *, #71, .F. ) ;
#69 = ORIENTED_EDGE ( 'NONE', *, *, #240, .F. ) ;
#70 = SPHERICAL_SURFACE ( 'NONE', #194, 23.67519685039370400 ) ;
#71 = EDGE_CURVE ( 'NONE', #137, #193, #221, .T. ) ;
#72 = ORGANIZATION ( 'UNSPECIFIED', 'UNSPECIFIED', '' ) ;
#73 = VECTOR ( 'NONE', #195, 39.37007874015748100 ) ;
#74 = CC_DESIGN_APPROVAL ( #60, ( #50 ) ) ;
#75 = ADVANCED_FACE ( 'NONE', ( #263 ), #27, .T. ) ;
#76 = EDGE_LOOP ( 'NONE', ( #177, #283, #191, #111 ) ) ;
#77 = PERSON_AND_ORGANIZATION ( #26, #72 ) ;
#78 = AXIS2_PLACEMENT_3D ( 'NONE', #150, #153, #99 ) ;
#79 = CIRCLE ( 'NONE', #145, 0.5000000000000000000 ) ;
#80 = CARTESIAN_POINT ( 'NONE',  ( 0.0000000000000000000, -4.383175526066023600E-015, 0.07362473710405806300 ) ) ;
#81 = DATE_AND_TIME ( #41, #6 ) ;
#82 = DIRECTION ( 'NONE',  ( 0.0000000000000000000, -0.7071067811865446900, 0.7071067811865503500 ) ) ;
#83 = PERSON_AND_ORGANIZATION_ROLE ( 'creator' ) ;
#84 = EDGE_CURVE ( 'NONE', #92, #121, #259, .T. ) ;
#85 = EDGE_LOOP ( 'NONE', ( #198, #69, #129, #113 ) ) ;
#86 = LINE ( 'NONE', #277, #73 ) ;
#87 = DIRECTION ( 'NONE',  ( 0.0000000000000000000, -1.000000000000000000, -3.073328992872296400E-016 ) ) ;
#88 = PERSON_AND_ORGANIZATION ( #26, #72 ) ;
#89 = CC_DESIGN_PERSON_AND_ORGANIZATION_ASSIGNMENT ( #266, #47, ( #50 ) ) ;
#90 = ORIENTED_EDGE ( 'NONE', *, *, #98, .T. ) ;
#91 = ADVANCED_FACE ( 'NONE', ( #215 ), #249, .T. ) ;
#92 = VERTEX_POINT ( 'NONE', #125 ) ;
#93 = ORIENTED_EDGE ( 'NONE', *, *, #240, .T. ) ;
#94 = AXIS2_PLACEMENT_3D ( 'NONE', #18, #130, #244 ) ;
#95 = CARTESIAN_POINT ( 'NONE',  ( 0.0000000000000000000, 0.5000000000000000000, 0.06558576573476988800 ) ) ;
#96 = DIRECTION ( 'NONE',  ( 8.659560562354895900E-017, 0.7071067811865442400, 0.7071067811865507900 ) ) ;
#97 = APPROVAL_DATE_TIME ( #4, #60 ) ;
#98 = EDGE_CURVE ( 'NONE', #261, #253, #86, .T. ) ;
#99 = DIRECTION ( 'NONE',  ( 0.0000000000000000000, 1.000000000000000000, 3.061515884555943100E-016 ) ) ;
#100 = ADVANCED_BREP_SHAPE_REPRESENTATION ( 'TTN049381-E0W', ( #293, #12 ), #232 ) ;
#101 = VECTOR ( 'NONE', #226, 39.37007874015748100 ) ;
#102 = CARTESIAN_POINT ( 'NONE',  ( 0.0000000000000000000, 2.863457502607032100E-015, -23.59645669291338900 ) ) ;
#103 = CC_DESIGN_DATE_AND_TIME_ASSIGNMENT ( #164, #214, ( #50 ) ) ;
#104 = DIRECTION ( 'NONE',  ( 0.0000000000000000000, 1.000000000000000000, 3.122482808929107300E-016 ) ) ;
#105 = CARTESIAN_POINT ( 'NONE',  ( 0.0000000000000000000, 0.0000000000000000000, 0.0000000000000000000 ) ) ;
#106 = DIRECTION ( 'NONE',  ( 1.000000000000000000, 0.0000000000000000000, 0.0000000000000000000 ) ) ;
#107 = ORIENTED_EDGE ( 'NONE', *, *, #84, .F. ) ;
#108 = SECURITY_CLASSIFICATION_LEVEL ( 'unclassified' ) ;
#109 = ORIENTED_EDGE ( 'NONE', *, *, #202, .T. ) ;
#110 = AXIS2_PLACEMENT_3D ( 'NONE', #34, #123, #112 ) ;
#111 = ORIENTED_EDGE ( 'NONE', *, *, #23, .F. ) ;
#112 = DIRECTION ( 'NONE',  ( 0.0000000000000000000, 1.000000000000000000, 3.692435435686892600E-016 ) ) ;
#113 = ORIENTED_EDGE ( 'NONE', *, *, #115, .F. ) ;
#114 = ORIENTED_EDGE ( 'NONE', *, *, #98, .F. ) ;
#115 = EDGE_CURVE ( 'NONE', #261, #126, #216, .T. ) ;
#116 = ADVANCED_FACE ( 'NONE', ( #20 ), #280, .T. ) ;
#117 = PRODUCT ( 'TTN049381-E0W', 'TTN049381-E0W', '', ( #284 ) ) ;
#118 = VERTEX_POINT ( 'NONE', #175 ) ;
#119 = PRODUCT_DEFINITION_FORMATION_WITH_SPECIFIED_SOURCE ( 'ANY', '', #117, .NOT_KNOWN. ) ;
#120 = DIRECTION ( 'NONE',  ( 0.0000000000000000000, -3.061515884555943100E-016, 1.000000000000000000 ) ) ;
#121 = VERTEX_POINT ( 'NONE', #21 ) ;
#122 = ORIENTED_EDGE ( 'NONE', *, *, #56, .T. ) ;
#123 = DIRECTION ( 'NONE',  ( 1.000000000000000000, 0.0000000000000000000, -0.0000000000000000000 ) ) ;
#124 = DIRECTION ( 'NONE',  ( 0.0000000000000000000, -3.061515884555921500E-016, 1.000000000000000000 ) ) ;
#125 = CARTESIAN_POINT ( 'NONE',  ( 0.0000000000000000000, -2.935053918038976100E-015, 0.07874015748031502900 ) ) ;
#126 = VERTEX_POINT ( 'NONE', #95 ) ;
#127 = AXIS2_PLACEMENT_3D ( 'NONE', #39, #205, #57 ) ;
#128 = CARTESIAN_POINT ( 'NONE',  ( 0.0000000000000000000, -3.179490856366749100E-017, 0.06558576573476973500 ) ) ;
#129 = ORIENTED_EDGE ( 'NONE', *, *, #23, .T. ) ;
#130 = DIRECTION ( 'NONE',  ( 1.000000000000000000, 1.224646799147353200E-016, 3.749275628560213600E-032 ) ) ;
#131 = CARTESIAN_POINT ( 'NONE',  ( 0.0000000000000000000, 1.239070208395084800E-017, -0.07874015748031502900 ) ) ;
#132 = DIRECTION ( 'NONE',  ( 0.0000000000000000000, 1.000000000000000000, 3.073328992872296400E-016 ) ) ;
#133 = LOCAL_TIME ( 10, 36, 35.00000000000000000, #207 ) ;
#134 = PERSON_AND_ORGANIZATION_ROLE ( 'design_owner' ) ;
#135 = DATE_TIME_ROLE ( 'classification_date' ) ;
#136 = EDGE_CURVE ( 'NONE', #92, #162, #37, .T. ) ;
#137 = VERTEX_POINT ( 'NONE', #10 ) ;
#138 = EDGE_LOOP ( 'NONE', ( #186, #142, #52, #59 ) ) ;
#139 = FACE_OUTER_BOUND ( 'NONE', #278, .T. ) ;
#140 = APPROVAL ( #65, 'UNSPECIFIED' ) ;
#141 = PERSON_AND_ORGANIZATION ( #26, #72 ) ;
#142 = ORIENTED_EDGE ( 'NONE', *, *, #71, .T. ) ;
#143 = VECTOR ( 'NONE', #233, 39.37007874015748100 ) ;
#144 = ORIENTED_EDGE ( 'NONE', *, *, #202, .F. ) ;
#145 = AXIS2_PLACEMENT_3D ( 'NONE', #128, #296, #155 ) ;
#146 = COORDINATED_UNIVERSAL_TIME_OFFSET ( 5, 0, .BEHIND. ) ;
#147 = ORIENTED_EDGE ( 'NONE', *, *, #48, .T. ) ;
#148 = EDGE_LOOP ( 'NONE', ( #169, #303 ) ) ;
#149 = LINE ( 'NONE', #14, #51 ) ;
#150 = CARTESIAN_POINT ( 'NONE',  ( 0.0000000000000000000, 1.239070208395084900E-017, -0.07874015748031502900 ) ) ;
#151 = ORIENTED_EDGE ( 'NONE', *, *, #168, .T. ) ;
#152 = EDGE_CURVE ( 'NONE', #118, #137, #154, .T. ) ;
#153 = DIRECTION ( 'NONE',  ( -0.0000000000000000000, 3.061515884555943100E-016, -1.000000000000000000 ) ) ;
#154 = CIRCLE ( 'NONE', #127, 0.4921259842519686800 ) ;
#155 = DIRECTION ( 'NONE',  ( 0.0000000000000000000, -1.000000000000000000, -3.073328992872296400E-016 ) ) ;
#156 = DIRECTION ( 'NONE',  ( 0.0000000000000000000, 1.000000000000000000, 3.122502256758251800E-016 ) ) ;
#157 = APPROVAL_DATE_TIME ( #81, #256 ) ;
#158 = CC_DESIGN_APPROVAL ( #140, ( #119 ) ) ;
#159 = DIRECTION ( 'NONE',  ( -0.0000000000000000000, 3.061515884555943100E-016, -1.000000000000000000 ) ) ;
#160 = APPLICATION_PROTOCOL_DEFINITION ( 'international standard', 'config_control_design', 1994, #300 ) ;
#161 = APPROVAL_ROLE ( '' ) ;
#162 = VERTEX_POINT ( 'NONE', #236 ) ;
#163 = AXIS2_PLACEMENT_3D ( 'NONE', #131, #298, #156 ) ;
#164 = DATE_AND_TIME ( #36, #133 ) ;
#165 = DIRECTION ( 'NONE',  ( -0.0000000000000000000, 3.061515884555921500E-016, -1.000000000000000000 ) ) ;
#166 = FACE_OUTER_BOUND ( 'NONE', #138, .T. ) ;
#167 = DIMENSIONAL_EXPONENTS ( 1.000000000000000000, 0.0000000000000000000, 0.0000000000000000000, 0.0000000000000000000, 0.0000000000000000000, 0.0000000000000000000, 0.0000000000000000000 ) ;
#168 = EDGE_CURVE ( 'NONE', #126, #261, #79, .T. ) ;
#169 = ORIENTED_EDGE ( 'NONE', *, *, #152, .T. ) ;
#170 = CARTESIAN_POINT ( 'NONE',  ( 0.0000000000000000000, 1.239070208395082800E-017, -0.07874015748031496000 ) ) ;
#171 = CC_DESIGN_PERSON_AND_ORGANIZATION_ASSIGNMENT ( #197, #83, ( #119 ) ) ;
#172 = DESIGN_CONTEXT ( 'detailed design', #300, 'design' ) ;
#173 = APPROVAL_PERSON_ORGANIZATION ( #63, #140, #238 ) ;
#174 = EDGE_LOOP ( 'NONE', ( #68, #25, #42, #206 ) ) ;
#175 = CARTESIAN_POINT ( 'NONE',  ( 0.0000000000000000000, -0.4921259842519686800, -0.07874015748031518200 ) ) ;
#176 = CARTESIAN_POINT ( 'NONE',  ( 0.0000000000000000000, 9.980059655166675400E-018, -0.07086614173228365800 ) ) ;
#177 = ORIENTED_EDGE ( 'NONE', *, *, #48, .F. ) ;
#178 = AXIS2_PLACEMENT_3D ( 'NONE', #80, #255, #104 ) ;
#179 = CARTESIAN_POINT ( 'NONE',  ( 0.0000000000000000000, 0.5000000000000000000, -0.07086614173228350500 ) ) ;
#180 = CARTESIAN_POINT ( 'NONE',  ( 6.123233995736766000E-017, -0.5000000000000000000, -0.07086614173228381100 ) ) ;
#181 = CARTESIAN_POINT ( 'NONE',  ( 0.0000000000000000000, 1.239070208395082800E-017, -0.07874015748031496000 ) ) ;
#182 =( CONVERSION_BASED_UNIT ( 'INCH', #62 ) LENGTH_UNIT ( ) NAMED_UNIT ( #167 ) );
#183 = DATE_AND_TIME ( #258, #67 ) ;
#184 = APPROVAL_ROLE ( '' ) ;
#185 = EDGE_CURVE ( 'NONE', #162, #261, #33, .T. ) ;
#186 = ORIENTED_EDGE ( 'NONE', *, *, #222, .F. ) ;
#187 = CC_DESIGN_PERSON_AND_ORGANIZATION_ASSIGNMENT ( #141, #262, ( #119 ) ) ;
#188 = APPROVAL_PERSON_ORGANIZATION ( #88, #256, #161 ) ;
#189 = CYLINDRICAL_SURFACE ( 'NONE', #1, 0.5000000000000000000 ) ;
#190 = CLOSED_SHELL ( 'NONE', ( #75, #24, #28, #223, #91, #116, #272, #289, #269 ) ) ;
#191 = ORIENTED_EDGE ( 'NONE', *, *, #168, .F. ) ;
#192 = LINE ( 'NONE', #273, #101 ) ;
#193 = VERTEX_POINT ( 'NONE', #179 ) ;
#194 = AXIS2_PLACEMENT_3D ( 'NONE', #102, #231, #13 ) ;
#195 = DIRECTION ( 'NONE',  ( -0.0000000000000000000, 3.061515884555943100E-016, -1.000000000000000000 ) ) ;
#196 = DIRECTION ( 'NONE',  ( 0.0000000000000000000, -1.000000000000000000, -3.122502256758251800E-016 ) ) ;
#197 = PERSON_AND_ORGANIZATION ( #26, #72 ) ;
#198 = ORIENTED_EDGE ( 'NONE', *, *, #185, .F. ) ;
#199 = CARTESIAN_POINT ( 'NONE',  ( 6.026805113914142300E-017, 0.4921259842519686800, -0.07874015748031487600 ) ) ;
#200 = DIRECTION ( 'NONE',  ( 0.0000000000000000000, 1.000000000000000000, 3.073328992872296400E-016 ) ) ;
#201 = DIRECTION ( 'NONE',  ( -1.000000000000000000, 0.0000000000000000000, 0.0000000000000000000 ) ) ;
#202 = EDGE_CURVE ( 'NONE', #126, #193, #7, .T. ) ;
#203 = PERSON_AND_ORGANIZATION ( #26, #72 ) ;
#204 = EDGE_LOOP ( 'NONE', ( #151, #90, #32, #144 ) ) ;
#205 = DIRECTION ( 'NONE',  ( -0.0000000000000000000, 3.061515884555943100E-016, -1.000000000000000000 ) ) ;
#206 = ORIENTED_EDGE ( 'NONE', *, *, #56, .F. ) ;
#207 = COORDINATED_UNIVERSAL_TIME_OFFSET ( 5, 0, .BEHIND. ) ;
#208 = COORDINATED_UNIVERSAL_TIME_OFFSET ( 5, 0, .BEHIND. ) ;
#209 = SECURITY_CLASSIFICATION ( '', '', #108 ) ;
#210 = CARTESIAN_POINT ( 'NONE',  ( 0.0000000000000000000, 1.239070208395084800E-017, -0.07874015748031502900 ) ) ;
#211 = CIRCLE ( 'NONE', #286, 0.5000000000000000000 ) ;
#212 =( NAMED_UNIT ( * ) SI_UNIT ( $, .STERADIAN. ) SOLID_ANGLE_UNIT ( ) );
#213 = FACE_OUTER_BOUND ( 'NONE', #85, .T. ) ;
#214 = DATE_TIME_ROLE ( 'creation_date' ) ;
#215 = FACE_OUTER_BOUND ( 'NONE', #148, .T. ) ;
#216 = CIRCLE ( 'NONE', #66, 0.5000000000000000000 ) ;
#217 = AXIS2_PLACEMENT_3D ( 'NONE', #61, #282, #132 ) ;
#218 = APPROVAL_DATE_TIME ( #183, #140 ) ;
#219 = CIRCLE ( 'NONE', #295, 0.4921290493711847300 ) ;
#220 = CIRCLE ( 'NONE', #178, 0.4921290493711847300 ) ;
#221 = LINE ( 'NONE', #199, #64 ) ;
#222 = EDGE_CURVE ( 'NONE', #137, #118, #228, .T. ) ;
#223 = ADVANCED_FACE ( 'NONE', ( #265 ), #70, .T. ) ;
#224 = DATE_AND_TIME ( #30, #248 ) ;
#225 = EDGE_LOOP ( 'NONE', ( #107, #275, #147 ) ) ;
#226 = DIRECTION ( 'NONE',  ( 0.0000000000000000000, 0.6996001899006569800, -0.7145345158149917200 ) ) ;
#227 = CC_DESIGN_PERSON_AND_ORGANIZATION_ASSIGNMENT ( #22, #285, ( #209 ) ) ;
#228 = CIRCLE ( 'NONE', #163, 0.4921259842519686800 ) ;
#229 = CARTESIAN_POINT ( 'NONE',  ( 0.0000000000000000000, -3.179490856366848300E-017, 0.06558576573476966600 ) ) ;
#230 = DIRECTION ( 'NONE',  ( 0.0000000000000000000, 1.000000000000000000, 3.073328992872296400E-016 ) ) ;
#231 = DIRECTION ( 'NONE',  ( 1.000000000000000000, 0.0000000000000000000, -0.0000000000000000000 ) ) ;
#232 =( GEOMETRIC_REPRESENTATION_CONTEXT ( 3 ) GLOBAL_UNCERTAINTY_ASSIGNED_CONTEXT ( ( #49 ) ) GLOBAL_UNIT_ASSIGNED_CONTEXT ( ( #182, #46, #212 ) ) REPRESENTATION_CONTEXT ( 'NONE', 'WORKASPACE' ) );
#233 = DIRECTION ( 'NONE',  ( -0.0000000000000000000, 3.061515884555943100E-016, -1.000000000000000000 ) ) ;
#234 = DIRECTION ( 'NONE',  ( 0.0000000000000000000, 1.000000000000000000, 3.073328992872296400E-016 ) ) ;
#235 = DIRECTION ( 'NONE',  ( 0.0000000000000000000, -3.061515884555943100E-016, 1.000000000000000000 ) ) ;
#236 = CARTESIAN_POINT ( 'NONE',  ( 6.026842650799614900E-017, -0.4921290493712792100, 0.07362473710406017300 ) ) ;
#237 = APPLICATION_PROTOCOL_DEFINITION ( 'international standard', 'config_control_design', 1994, #260 ) ;
#238 = APPROVAL_ROLE ( '' ) ;
#239 = CONICAL_SURFACE ( 'NONE', #271, 0.4921259842519686800, 0.7853981633974439500 ) ;
#240 = EDGE_CURVE ( 'NONE', #121, #162, #220, .T. ) ;
#241 = LOCAL_TIME ( 10, 36, 35.00000000000000000, #11 ) ;
#242 = CC_DESIGN_DATE_AND_TIME_ASSIGNMENT ( #224, #135, ( #209 ) ) ;
#243 = ORIENTED_EDGE ( 'NONE', *, *, #84, .T. ) ;
#244 = DIRECTION ( 'NONE',  ( -1.224646799147353200E-016, 1.000000000000000000, 0.0000000000000000000 ) ) ;
#245 = AXIS2_PLACEMENT_3D ( 'NONE', #210, #235, #43 ) ;
#246 = APPROVAL_PERSON_ORGANIZATION ( #77, #60, #184 ) ;
#247 = DIRECTION ( 'NONE',  ( 0.0000000000000000000, 1.000000000000000000, 3.073328992872296400E-016 ) ) ;
#248 = LOCAL_TIME ( 10, 36, 35.00000000000000000, #146 ) ;
#249 = PLANE ( 'NONE',  #78 ) ;
#250 = AXIS2_PLACEMENT_3D ( 'NONE', #54, #120, #247 ) ;
#251 = ORIENTED_EDGE ( 'NONE', *, *, #115, .T. ) ;
#252 = CARTESIAN_POINT ( 'NONE',  ( 6.123233995736764800E-017, -0.5000000000000000000, 0.06558576573476951300 ) ) ;
#253 = VERTEX_POINT ( 'NONE', #180 ) ;
#254 = CYLINDRICAL_SURFACE ( 'NONE', #264, 0.5000000000000000000 ) ;
#255 = DIRECTION ( 'NONE',  ( 0.0000000000000000000, -3.061515884555921500E-016, 1.000000000000000000 ) ) ;
#256 = APPROVAL ( #302, 'UNSPECIFIED' ) ;
#257 = DIRECTION ( 'NONE',  ( 0.0000000000000000000, 0.0000000000000000000, 1.000000000000000000 ) ) ;
#258 = CALENDAR_DATE ( 2016, 25, 7 ) ;
#259 = CIRCLE ( 'NONE', #38, 23.67519685039370400 ) ;
#260 = APPLICATION_CONTEXT ( 'configuration controlled 3d designs of mechanical parts and assemblies' ) ;
#261 = VERTEX_POINT ( 'NONE', #58 ) ;
#262 = PERSON_AND_ORGANIZATION_ROLE ( 'design_supplier' ) ;
#263 = FACE_OUTER_BOUND ( 'NONE', #76, .T. ) ;
#264 = AXIS2_PLACEMENT_3D ( 'NONE', #181, #159, #234 ) ;
#265 = FACE_OUTER_BOUND ( 'NONE', #225, .T. ) ;
#266 = PERSON_AND_ORGANIZATION ( #26, #72 ) ;
#267 = CIRCLE ( 'NONE', #250, 0.5000000000000000000 ) ;
#268 = VECTOR ( 'NONE', #281, 39.37007874015748100 ) ;
#269 = ADVANCED_FACE ( 'NONE', ( #213 ), #5, .T. ) ;
#270 = SHAPE_DEFINITION_REPRESENTATION ( #45, #100 ) ;
#271 = AXIS2_PLACEMENT_3D ( 'NONE', #291, #53, #196 ) ;
#272 = ADVANCED_FACE ( 'NONE', ( #139 ), #254, .T. ) ;
#273 = CARTESIAN_POINT ( 'NONE',  ( 0.0000000000000000000, 0.5000000000000000000, 0.06558576573476981900 ) ) ;
#274 = CC_DESIGN_APPROVAL ( #256, ( #209 ) ) ;
#275 = ORIENTED_EDGE ( 'NONE', *, *, #136, .T. ) ;
#276 = CARTESIAN_POINT ( 'NONE',  ( 0.0000000000000000000, -4.383175526066023600E-015, 0.07362473710405806300 ) ) ;
#277 = CARTESIAN_POINT ( 'NONE',  ( 6.123233995736766000E-017, -0.5000000000000000000, -0.07874015748031511200 ) ) ;
#278 = EDGE_LOOP ( 'NONE', ( #114, #251, #109, #122 ) ) ;
#279 = EDGE_LOOP ( 'NONE', ( #2, #243, #93 ) ) ;
#280 = SPHERICAL_SURFACE ( 'NONE', #110, 23.67519685039370400 ) ;
#281 = DIRECTION ( 'NONE',  ( 8.567631332447195200E-017, -0.6996001899006565300, -0.7145345158149921700 ) ) ;
#282 = DIRECTION ( 'NONE',  ( -0.0000000000000000000, 3.061515884555921500E-016, -1.000000000000000000 ) ) ;
#283 = ORIENTED_EDGE ( 'NONE', *, *, #185, .T. ) ;
#284 = MECHANICAL_CONTEXT ( 'NONE', #260, 'mechanical' ) ;
#285 = PERSON_AND_ORGANIZATION_ROLE ( 'classification_officer' ) ;
#286 = AXIS2_PLACEMENT_3D ( 'NONE', #176, #35, #200 ) ;
#287 = CARTESIAN_POINT ( 'NONE',  ( 0.0000000000000000000, -3.179490856366749100E-017, 0.06558576573476973500 ) ) ;
#288 = CC_DESIGN_SECURITY_CLASSIFICATION ( #209, ( #119 ) ) ;
#289 = ADVANCED_FACE ( 'NONE', ( #290 ), #304, .T. ) ;
#290 = FACE_OUTER_BOUND ( 'NONE', #174, .T. ) ;
#291 = CARTESIAN_POINT ( 'NONE',  ( 0.0000000000000000000, 1.239070208395084800E-017, -0.07874015748031502900 ) ) ;
#292 = DIRECTION ( 'NONE',  ( 0.0000000000000000000, 1.000000000000000000, 3.122482808929107300E-016 ) ) ;
#293 = MANIFOLD_SOLID_BREP ( 'TTN049382-1-solid1', #190 ) ;
#294 = DIRECTION ( 'NONE',  ( 0.0000000000000000000, 0.0000000000000000000, 1.000000000000000000 ) ) ;
#295 = AXIS2_PLACEMENT_3D ( 'NONE', #276, #124, #292 ) ;
#296 = DIRECTION ( 'NONE',  ( -0.0000000000000000000, 3.061515884555921500E-016, -1.000000000000000000 ) ) ;
#297 = FACE_OUTER_BOUND ( 'NONE', #204, .T. ) ;
#298 = DIRECTION ( 'NONE',  ( -0.0000000000000000000, 3.061515884555943100E-016, -1.000000000000000000 ) ) ;
#299 = PRODUCT_RELATED_PRODUCT_CATEGORY ( 'detail', '', ( #117 ) ) ;
#300 = APPLICATION_CONTEXT ( 'configuration controlled 3d designs of mechanical parts and assemblies' ) ;
#301 = EDGE_CURVE ( 'NONE', #118, #253, #149, .T. ) ;
#302 = APPROVAL_STATUS ( 'not_yet_approved' ) ;
#303 = ORIENTED_EDGE ( 'NONE', *, *, #222, .T. ) ;
#304 = CONICAL_SURFACE ( 'NONE', #245, 0.4921259842519686800, 0.7853981633974439500 ) ;
ENDSEC;
END-ISO-10303-21;
