ISO-10303-21;
HEADER;
FILE_DESCRIPTION (( 'STEP AP203' ),
    '1' );
FILE_NAME ('Web Model 68495.STEP',
    '2017-01-31T20:06:12',
    ( '' ),
    ( '' ),
    'SwSTEP 2.0',
    'SolidWorks 2016',
    '' );
FILE_SCHEMA (( 'CONFIG_CONTROL_DESIGN' ));
ENDSEC;

DATA;
#1 = VECTOR ( 'NONE', #36, 1000.000000000000000 ) ;
#2 = CIRCLE ( 'NONE', #81, 20.00000000000000000 ) ;
#3 = DIRECTION ( 'NONE',  ( -0.0000000000000000000, -0.0000000000000000000, -1.000000000000000000 ) ) ;
#4 = DATE_AND_TIME ( #76, #161 ) ;
#5 = CIRCLE ( 'NONE', #162, 20.00000000000000000 ) ;
#6 = CC_DESIGN_PERSON_AND_ORGANIZATION_ASSIGNMENT ( #103, #12, ( #175 ) ) ;
#7 = DESIGN_CONTEXT ( 'detailed design', #89, 'design' ) ;
#8 = DIRECTION ( 'NONE',  ( 1.000000000000000000, 0.0000000000000000000, 0.0000000000000000000 ) ) ;
#9 = PERSON_AND_ORGANIZATION ( #107, #42 ) ;
#10 = ORIENTED_EDGE ( 'NONE', *, *, #86, .T. ) ;
#11 = AXIS2_PLACEMENT_3D ( 'NONE', #100, #68, #114 ) ;
#12 = PERSON_AND_ORGANIZATION_ROLE ( 'classification_officer' ) ;
#13 = CARTESIAN_POINT ( 'NONE',  ( 0.0000000000000000000, 0.0000000000000000000, 4.000000000000000000 ) ) ;
#14 = APPLICATION_CONTEXT ( 'configuration controlled 3d designs of mechanical parts and assemblies' ) ;
#15 = CALENDAR_DATE ( 2017, 31, 1 ) ;
#16 =( GEOMETRIC_REPRESENTATION_CONTEXT ( 3 ) GLOBAL_UNCERTAINTY_ASSIGNED_CONTEXT ( ( #83 ) ) GLOBAL_UNIT_ASSIGNED_CONTEXT ( ( #158, #37, #47 ) ) REPRESENTATION_CONTEXT ( 'NONE', 'WORKASPACE' ) );
#17 = DATE_AND_TIME ( #15, #95 ) ;
#18 = ORIENTED_EDGE ( 'NONE', *, *, #73, .F. ) ;
#19 = COORDINATED_UNIVERSAL_TIME_OFFSET ( 5, 0, .BEHIND. ) ;
#20 = DIRECTION ( 'NONE',  ( -1.000000000000000000, 0.0000000000000000000, 0.0000000000000000000 ) ) ;
#21 = CARTESIAN_POINT ( 'NONE',  ( 0.0000000000000000000, 0.0000000000000000000, 4.000000000000000000 ) ) ;
#22 = PERSON_AND_ORGANIZATION ( #107, #42 ) ;
#23 = PRODUCT_DEFINITION_FORMATION_WITH_SPECIFIED_SOURCE ( 'ANY', '', #29, .NOT_KNOWN. ) ;
#24 = EDGE_LOOP ( 'NONE', ( #92, #33 ) ) ;
#25 = CARTESIAN_POINT ( 'NONE',  ( 0.0000000000000000000, 0.0000000000000000000, 4.000000000000000000 ) ) ;
#26 = APPROVAL_STATUS ( 'not_yet_approved' ) ;
#27 = ORIENTED_EDGE ( 'NONE', *, *, #35, .T. ) ;
#28 = APPROVAL_ROLE ( '' ) ;
#29 = PRODUCT ( 'Web Model 68495', 'Web Model 68495', '', ( #70 ) ) ;
#30 = APPROVAL_DATE_TIME ( #17, #41 ) ;
#31 = CLOSED_SHELL ( 'NONE', ( #165, #159, #38, #46 ) ) ;
#32 = PRODUCT_DEFINITION_SHAPE ( 'NONE', 'NONE',  #61 ) ;
#33 = ORIENTED_EDGE ( 'NONE', *, *, #112, .F. ) ;
#34 = DIRECTION ( 'NONE',  ( 1.000000000000000000, 0.0000000000000000000, 0.0000000000000000000 ) ) ;
#35 = EDGE_CURVE ( 'NONE', #62, #51, #90, .T. ) ;
#36 = DIRECTION ( 'NONE',  ( -0.0000000000000000000, -0.0000000000000000000, -1.000000000000000000 ) ) ;
#37 =( NAMED_UNIT ( * ) PLANE_ANGLE_UNIT ( ) SI_UNIT ( $, .RADIAN. ) );
#38 = ADVANCED_FACE ( 'NONE', ( #50 ), #53, .T. ) ;
#39 = PERSON_AND_ORGANIZATION_ROLE ( 'design_owner' ) ;
#40 = DATE_AND_TIME ( #74, #111 ) ;
#41 = APPROVAL ( #124, 'UNSPECIFIED' ) ;
#42 = ORGANIZATION ( 'UNSPECIFIED', 'UNSPECIFIED', '' ) ;
#43 = CARTESIAN_POINT ( 'NONE',  ( 0.0000000000000000000, 0.0000000000000000000, 4.000000000000000000 ) ) ;
#44 = CARTESIAN_POINT ( 'NONE',  ( 0.0000000000000000000, 0.0000000000000000000, 0.0000000000000000000 ) ) ;
#45 = MANIFOLD_SOLID_BREP ( 'Extrude1', #31 ) ;
#46 = ADVANCED_FACE ( 'NONE', ( #164 ), #120, .F. ) ;
#47 =( NAMED_UNIT ( * ) SI_UNIT ( $, .STERADIAN. ) SOLID_ANGLE_UNIT ( ) );
#48 = AXIS2_PLACEMENT_3D ( 'NONE', #25, #152, #20 ) ;
#49 = COORDINATED_UNIVERSAL_TIME_OFFSET ( 5, 0, .BEHIND. ) ;
#50 = FACE_OUTER_BOUND ( 'NONE', #126, .T. ) ;
#51 = VERTEX_POINT ( 'NONE', #65 ) ;
#52 = AXIS2_PLACEMENT_3D ( 'NONE', #96, #172, #8 ) ;
#53 = PLANE ( 'NONE',  #64 ) ;
#54 = SHAPE_DEFINITION_REPRESENTATION ( #32, #118 ) ;
#55 = ORIENTED_EDGE ( 'NONE', *, *, #123, .F. ) ;
#56 = APPROVAL_ROLE ( '' ) ;
#57 = CC_DESIGN_APPROVAL ( #41, ( #61 ) ) ;
#58 = AXIS2_PLACEMENT_3D ( 'NONE', #13, #116, #99 ) ;
#59 = CALENDAR_DATE ( 2017, 31, 1 ) ;
#60 = AXIS2_PLACEMENT_3D ( 'NONE', #67, #85, #122 ) ;
#61 = PRODUCT_DEFINITION ( 'UNKNOWN', '', #23, #7 ) ;
#62 = VERTEX_POINT ( 'NONE', #171 ) ;
#63 = CC_DESIGN_DATE_AND_TIME_ASSIGNMENT ( #139, #72, ( #61 ) ) ;
#64 = AXIS2_PLACEMENT_3D ( 'NONE', #43, #168, #155 ) ;
#65 = CARTESIAN_POINT ( 'NONE',  ( 20.00000000000000000, 2.449293598294706500E-015, 4.000000000000000000 ) ) ;
#66 = DIRECTION ( 'NONE',  ( 0.0000000000000000000, 0.0000000000000000000, 1.000000000000000000 ) ) ;
#67 = CARTESIAN_POINT ( 'NONE',  ( 0.0000000000000000000, 0.0000000000000000000, 0.0000000000000000000 ) ) ;
#68 = DIRECTION ( 'NONE',  ( 0.0000000000000000000, 0.0000000000000000000, 1.000000000000000000 ) ) ;
#69 = APPLICATION_PROTOCOL_DEFINITION ( 'international standard', 'config_control_design', 1994, #89 ) ;
#70 = MECHANICAL_CONTEXT ( 'NONE', #14, 'mechanical' ) ;
#71 = APPROVAL_PERSON_ORGANIZATION ( #151, #127, #113 ) ;
#72 = DATE_TIME_ROLE ( 'creation_date' ) ;
#73 = EDGE_CURVE ( 'NONE', #51, #170, #84, .T. ) ;
#74 = CALENDAR_DATE ( 2017, 31, 1 ) ;
#75 = ORIENTED_EDGE ( 'NONE', *, *, #86, .F. ) ;
#76 = CALENDAR_DATE ( 2017, 31, 1 ) ;
#77 = PERSON_AND_ORGANIZATION ( #107, #42 ) ;
#78 = ORIENTED_EDGE ( 'NONE', *, *, #112, .T. ) ;
#79 = CIRCLE ( 'NONE', #52, 20.00000000000000000 ) ;
#80 = CC_DESIGN_DATE_AND_TIME_ASSIGNMENT ( #143, #97, ( #175 ) ) ;
#81 = AXIS2_PLACEMENT_3D ( 'NONE', #94, #110, #34 ) ;
#82 = FACE_OUTER_BOUND ( 'NONE', #128, .T. ) ;
#83 = UNCERTAINTY_MEASURE_WITH_UNIT (LENGTH_MEASURE( 1.000000000000000100E-005 ), #158, 'distance_accuracy_value', 'NONE');
#84 = LINE ( 'NONE', #167, #150 ) ;
#85 = DIRECTION ( 'NONE',  ( 0.0000000000000000000, 0.0000000000000000000, 1.000000000000000000 ) ) ;
#86 = EDGE_CURVE ( 'NONE', #51, #62, #79, .T. ) ;
#87 = SECURITY_CLASSIFICATION_LEVEL ( 'unclassified' ) ;
#88 = APPROVAL ( #102, 'UNSPECIFIED' ) ;
#89 = APPLICATION_CONTEXT ( 'configuration controlled 3d designs of mechanical parts and assemblies' ) ;
#90 = CIRCLE ( 'NONE', #133, 20.00000000000000000 ) ;
#91 = CALENDAR_DATE ( 2017, 31, 1 ) ;
#92 = ORIENTED_EDGE ( 'NONE', *, *, #141, .F. ) ;
#93 = DIRECTION ( 'NONE',  ( 0.0000000000000000000, 0.0000000000000000000, 1.000000000000000000 ) ) ;
#94 = CARTESIAN_POINT ( 'NONE',  ( 0.0000000000000000000, 0.0000000000000000000, 0.0000000000000000000 ) ) ;
#95 = LOCAL_TIME ( 15, 6, 12.00000000000000000, #49 ) ;
#96 = CARTESIAN_POINT ( 'NONE',  ( 0.0000000000000000000, 0.0000000000000000000, 4.000000000000000000 ) ) ;
#97 = DATE_TIME_ROLE ( 'classification_date' ) ;
#98 = LOCAL_TIME ( 15, 6, 12.00000000000000000, #19 ) ;
#99 = DIRECTION ( 'NONE',  ( -1.000000000000000000, 0.0000000000000000000, 0.0000000000000000000 ) ) ;
#100 = CARTESIAN_POINT ( 'NONE',  ( 0.0000000000000000000, 0.0000000000000000000, 0.0000000000000000000 ) ) ;
#101 = CYLINDRICAL_SURFACE ( 'NONE', #58, 20.00000000000000000 ) ;
#102 = APPROVAL_STATUS ( 'not_yet_approved' ) ;
#103 = PERSON_AND_ORGANIZATION ( #107, #42 ) ;
#104 = APPROVAL_DATE_TIME ( #4, #127 ) ;
#105 = FACE_OUTER_BOUND ( 'NONE', #132, .T. ) ;
#106 = VERTEX_POINT ( 'NONE', #136 ) ;
#107 = PERSON ( 'UNSPECIFIED', 'UNSPECIFIED', 'UNSPECIFIED', ('UNSPECIFIED'), ('UNSPECIFIED'), ('UNSPECIFIED') ) ;
#108 = DIRECTION ( 'NONE',  ( 1.000000000000000000, 0.0000000000000000000, 0.0000000000000000000 ) ) ;
#109 = CYLINDRICAL_SURFACE ( 'NONE', #48, 20.00000000000000000 ) ;
#110 = DIRECTION ( 'NONE',  ( 0.0000000000000000000, 0.0000000000000000000, 1.000000000000000000 ) ) ;
#111 = LOCAL_TIME ( 15, 6, 12.00000000000000000, #163 ) ;
#112 = EDGE_CURVE ( 'NONE', #170, #106, #5, .T. ) ;
#113 = APPROVAL_ROLE ( '' ) ;
#114 = DIRECTION ( 'NONE',  ( 1.000000000000000000, 0.0000000000000000000, 0.0000000000000000000 ) ) ;
#115 = APPROVAL_DATE_TIME ( #40, #88 ) ;
#116 = DIRECTION ( 'NONE',  ( -0.0000000000000000000, -0.0000000000000000000, -1.000000000000000000 ) ) ;
#117 = ORIENTED_EDGE ( 'NONE', *, *, #73, .T. ) ;
#118 = ADVANCED_BREP_SHAPE_REPRESENTATION ( 'Web Model 68495', ( #45, #11 ), #16 ) ;
#119 = CC_DESIGN_APPROVAL ( #88, ( #23 ) ) ;
#120 = PLANE ( 'NONE',  #60 ) ;
#121 = APPROVAL_PERSON_ORGANIZATION ( #125, #41, #28 ) ;
#122 = DIRECTION ( 'NONE',  ( 1.000000000000000000, 0.0000000000000000000, -0.0000000000000000000 ) ) ;
#123 = EDGE_CURVE ( 'NONE', #62, #106, #130, .T. ) ;
#124 = APPROVAL_STATUS ( 'not_yet_approved' ) ;
#125 = PERSON_AND_ORGANIZATION ( #107, #42 ) ;
#126 = EDGE_LOOP ( 'NONE', ( #27, #10 ) ) ;
#127 = APPROVAL ( #26, 'UNSPECIFIED' ) ;
#128 = EDGE_LOOP ( 'NONE', ( #75, #117, #78, #55 ) ) ;
#129 = CC_DESIGN_PERSON_AND_ORGANIZATION_ASSIGNMENT ( #9, #156, ( #23 ) ) ;
#130 = LINE ( 'NONE', #138, #1 ) ;
#131 = ORIENTED_EDGE ( 'NONE', *, *, #141, .T. ) ;
#132 = EDGE_LOOP ( 'NONE', ( #18, #160, #140, #131 ) ) ;
#133 = AXIS2_PLACEMENT_3D ( 'NONE', #21, #66, #154 ) ;
#134 = CC_DESIGN_APPROVAL ( #127, ( #175 ) ) ;
#135 = CC_DESIGN_PERSON_AND_ORGANIZATION_ASSIGNMENT ( #77, #146, ( #61 ) ) ;
#136 = CARTESIAN_POINT ( 'NONE',  ( -20.00000000000000000, 0.0000000000000000000, 0.0000000000000000000 ) ) ;
#137 = PRODUCT_RELATED_PRODUCT_CATEGORY ( 'detail', '', ( #29 ) ) ;
#138 = CARTESIAN_POINT ( 'NONE',  ( -20.00000000000000000, 0.0000000000000000000, 4.000000000000000000 ) ) ;
#139 = DATE_AND_TIME ( #91, #169 ) ;
#140 = ORIENTED_EDGE ( 'NONE', *, *, #123, .T. ) ;
#141 = EDGE_CURVE ( 'NONE', #106, #170, #2, .T. ) ;
#142 = CC_DESIGN_SECURITY_CLASSIFICATION ( #175, ( #23 ) ) ;
#143 = DATE_AND_TIME ( #59, #98 ) ;
#144 = CC_DESIGN_PERSON_AND_ORGANIZATION_ASSIGNMENT ( #147, #173, ( #23 ) ) ;
#145 = APPROVAL_PERSON_ORGANIZATION ( #149, #88, #56 ) ;
#146 = PERSON_AND_ORGANIZATION_ROLE ( 'creator' ) ;
#147 = PERSON_AND_ORGANIZATION ( #107, #42 ) ;
#148 = CC_DESIGN_PERSON_AND_ORGANIZATION_ASSIGNMENT ( #22, #39, ( #29 ) ) ;
#149 = PERSON_AND_ORGANIZATION ( #107, #42 ) ;
#150 = VECTOR ( 'NONE', #3, 1000.000000000000000 ) ;
#151 = PERSON_AND_ORGANIZATION ( #107, #42 ) ;
#152 = DIRECTION ( 'NONE',  ( -0.0000000000000000000, -0.0000000000000000000, -1.000000000000000000 ) ) ;
#153 = COORDINATED_UNIVERSAL_TIME_OFFSET ( 5, 0, .BEHIND. ) ;
#154 = DIRECTION ( 'NONE',  ( 1.000000000000000000, 0.0000000000000000000, 0.0000000000000000000 ) ) ;
#155 = DIRECTION ( 'NONE',  ( 1.000000000000000000, 0.0000000000000000000, -0.0000000000000000000 ) ) ;
#156 = PERSON_AND_ORGANIZATION_ROLE ( 'creator' ) ;
#157 = CARTESIAN_POINT ( 'NONE',  ( 20.00000000000000000, 2.449293598294706500E-015, 0.0000000000000000000 ) ) ;
#158 =( LENGTH_UNIT ( ) NAMED_UNIT ( * ) SI_UNIT ( .MILLI., .METRE. ) );
#159 = ADVANCED_FACE ( 'NONE', ( #105 ), #109, .T. ) ;
#160 = ORIENTED_EDGE ( 'NONE', *, *, #35, .F. ) ;
#161 = LOCAL_TIME ( 15, 6, 12.00000000000000000, #166 ) ;
#162 = AXIS2_PLACEMENT_3D ( 'NONE', #44, #93, #108 ) ;
#163 = COORDINATED_UNIVERSAL_TIME_OFFSET ( 5, 0, .BEHIND. ) ;
#164 = FACE_OUTER_BOUND ( 'NONE', #24, .T. ) ;
#165 = ADVANCED_FACE ( 'NONE', ( #82 ), #101, .T. ) ;
#166 = COORDINATED_UNIVERSAL_TIME_OFFSET ( 5, 0, .BEHIND. ) ;
#167 = CARTESIAN_POINT ( 'NONE',  ( 20.00000000000000000, 2.449293598294706500E-015, 4.000000000000000000 ) ) ;
#168 = DIRECTION ( 'NONE',  ( 0.0000000000000000000, 0.0000000000000000000, 1.000000000000000000 ) ) ;
#169 = LOCAL_TIME ( 15, 6, 12.00000000000000000, #153 ) ;
#170 = VERTEX_POINT ( 'NONE', #157 ) ;
#171 = CARTESIAN_POINT ( 'NONE',  ( -20.00000000000000000, 0.0000000000000000000, 4.000000000000000000 ) ) ;
#172 = DIRECTION ( 'NONE',  ( 0.0000000000000000000, 0.0000000000000000000, 1.000000000000000000 ) ) ;
#173 = PERSON_AND_ORGANIZATION_ROLE ( 'design_supplier' ) ;
#174 = APPLICATION_PROTOCOL_DEFINITION ( 'international standard', 'config_control_design', 1994, #14 ) ;
#175 = SECURITY_CLASSIFICATION ( '', '', #87 ) ;
ENDSEC;
END-ISO-10303-21;
