ISO-10303-21;
HEADER;
FILE_DESCRIPTION (( 'STEP AP203' ),
    '1' );
FILE_NAME ('TTN225633-E0W.STEP',
    '2022-08-12T15:57:53',
    ( '' ),
    ( '' ),
    'SwSTEP 2.0',
    'SolidWorks 2018',
    '' );
FILE_SCHEMA (( 'CONFIG_CONTROL_DESIGN' ));
ENDSEC;

DATA;
#1 = EDGE_LOOP ( 'NONE', ( #261, #25, #251, #11 ) ) ;
#2 = DIRECTION ( 'NONE',  ( 0.000000000000000000, 1.000000000000000000, 1.707404996040164512E-16 ) ) ;
#3 = CC_DESIGN_PERSON_AND_ORGANIZATION_ASSIGNMENT ( #224, #308, ( #65 ) ) ;
#4 = CARTESIAN_POINT ( 'NONE',  ( 0.000000000000000000, 0.000000000000000000, 0.1440970000000000029 ) ) ;
#5 = CARTESIAN_POINT ( 'NONE',  ( 0.000000000000000000, 0.000000000000000000, 0.1835899999999999754 ) ) ;
#6 = CIRCLE ( 'NONE', #185, 0.01250037947727976155 ) ;
#7 = DIRECTION ( 'NONE',  ( -0.000000000000000000, -1.836909530733584130E-16, 1.000000000000000000 ) ) ;
#8 = CARTESIAN_POINT ( 'NONE',  ( -1.530854971497825417E-18, -0.01250037947727999574, 0.002430764483496452265 ) ) ;
#9 = EDGE_CURVE ( 'NONE', #115, #93, #243, .T. ) ;
#10 = CONICAL_SURFACE ( 'NONE', #247, 0.01250037947727975982, 0.8203956194508476019 ) ;
#11 = ORIENTED_EDGE ( 'NONE', *, *, #117, .F. ) ;
#12 = CC_DESIGN_PERSON_AND_ORGANIZATION_ASSIGNMENT ( #325, #205, ( #172 ) ) ;
#13 = DIRECTION ( 'NONE',  ( 0.000000000000000000, -1.000000000000000000, -1.899804624025743945E-16 ) ) ;
#14 = CARTESIAN_POINT ( 'NONE',  ( 0.000000000000000000, 0.01250037947728006166, 0.002430764483496454000 ) ) ;
#15 = DIRECTION ( 'NONE',  ( 1.000000000000000000, 0.000000000000000000, 0.000000000000000000 ) ) ;
#16 = ORIENTED_EDGE ( 'NONE', *, *, #268, .F. ) ;
#17 = FACE_OUTER_BOUND ( 'NONE', #193, .T. ) ;
#18 = PRODUCT_RELATED_PRODUCT_CATEGORY ( 'detail', '', ( #141 ) ) ;
#19 = AXIS2_PLACEMENT_3D ( 'NONE', #46, #238, #23 ) ;
#20 = ADVANCED_FACE ( 'NONE', ( #47 ), #294, .T. ) ;
#21 = CIRCLE ( 'NONE', #40, 0.1815900000000000014 ) ;
#22 = VECTOR ( 'NONE', #150, 1.000000000000000000 ) ;
#23 = DIRECTION ( 'NONE',  ( 0.000000000000000000, -1.000000000000000000, -1.899804624025743945E-16 ) ) ;
#24 = EDGE_CURVE ( 'NONE', #77, #230, #21, .T. ) ;
#25 = ORIENTED_EDGE ( 'NONE', *, *, #135, .F. ) ;
#26 = VECTOR ( 'NONE', #29, 1.000000000000000000 ) ;
#27 = ORIENTED_EDGE ( 'NONE', *, *, #214, .T. ) ;
#28 = EDGE_CURVE ( 'NONE', #120, #290, #96, .T. ) ;
#29 = DIRECTION ( 'NONE',  ( 8.274623384777487312E-17, 0.6756742752717437295, 0.7372002941779147722 ) ) ;
#30 = EDGE_LOOP ( 'NONE', ( #36, #241, #27, #153 ) ) ;
#31 = DIRECTION ( 'NONE',  ( 0.000000000000000000, 1.000000000000000000, 1.734670814523849222E-16 ) ) ;
#32 = APPROVAL_DATE_TIME ( #173, #167 ) ;
#33 = VECTOR ( 'NONE', #303, 1.000000000000000000 ) ;
#34 = CARTESIAN_POINT ( 'NONE',  ( 0.000000000000000000, 5.964366194702288182E-19, -0.001246956964897683474 ) ) ;
#35 = AXIS2_PLACEMENT_3D ( 'NONE', #192, #179, #75 ) ;
#36 = ORIENTED_EDGE ( 'NONE', *, *, #9, .T. ) ;
#37 = CIRCLE ( 'NONE', #114, 0.01269999999999999948 ) ;
#38 = DIRECTION ( 'NONE',  ( 1.000000000000000000, 0.000000000000000000, 0.000000000000000000 ) ) ;
#39 = APPROVAL_STATUS ( 'not_yet_approved' ) ;
#40 = AXIS2_PLACEMENT_3D ( 'NONE', #318, #132, #163 ) ;
#41 = EDGE_LOOP ( 'NONE', ( #165, #174, #229, #246 ) ) ;
#42 = LINE ( 'NONE', #252, #22 ) ;
#43 = PERSON_AND_ORGANIZATION ( #260, #83 ) ;
#44 = ADVANCED_BREP_SHAPE_REPRESENTATION ( 'TTN225633-E0W', ( #92, #200 ), #220 ) ;
#45 = LINE ( 'NONE', #121, #33 ) ;
#46 = CARTESIAN_POINT ( 'NONE',  ( 0.000000000000000000, 0.000000000000000000, 0.1440970000000000029 ) ) ;
#47 = FACE_OUTER_BOUND ( 'NONE', #324, .T. ) ;
#48 = APPROVAL_DATE_TIME ( #169, #217 ) ;
#49 = ORIENTED_EDGE ( 'NONE', *, *, #103, .T. ) ;
#50 = LOCAL_TIME ( 11, 57, 53.00000000000000000, #108 ) ;
#51 = AXIS2_PLACEMENT_3D ( 'NONE', #53, #177, #279 ) ;
#52 = CARTESIAN_POINT ( 'NONE',  ( 0.000000000000000000, 0.000000000000000000, 0.1440970000000000029 ) ) ;
#53 = CARTESIAN_POINT ( 'NONE',  ( 0.000000000000000000, 2.673827437114623929E-17, -0.001464193536130919959 ) ) ;
#54 = ORIENTED_EDGE ( 'NONE', *, *, #159, .T. ) ;
#55 = APPROVAL_PERSON_ORGANIZATION ( #240, #217, #102 ) ;
#56 = DIRECTION ( 'NONE',  ( 0.000000000000000000, -1.000000000000000000, -1.878145495644181086E-16 ) ) ;
#57 = EDGE_CURVE ( 'NONE', #282, #290, #267, .T. ) ;
#58 = APPLICATION_PROTOCOL_DEFINITION ( 'international standard', 'config_control_design', 1994, #204 ) ;
#59 = CALENDAR_DATE ( 2022, 12, 8 ) ;
#60 = ORIENTED_EDGE ( 'NONE', *, *, #103, .F. ) ;
#61 = CARTESIAN_POINT ( 'NONE',  ( 0.000000000000000000, 5.964366194702285293E-19, -0.001246956964897683040 ) ) ;
#62 = DIRECTION ( 'NONE',  ( 8.957258621509060916E-17, -0.7314156724816863742, -0.6819318983946729418 ) ) ;
#63 = APPROVAL_ROLE ( '' ) ;
#64 = ORIENTED_EDGE ( 'NONE', *, *, #215, .T. ) ;
#65 = SECURITY_CLASSIFICATION ( '', '', #105 ) ;
#66 = SPHERICAL_SURFACE ( 'NONE', #144, 0.1815900000000000014 ) ;
#67 = DIRECTION ( 'NONE',  ( 0.000000000000000000, -1.000000000000000000, -1.878145495644181086E-16 ) ) ;
#68 = SHAPE_DEFINITION_REPRESENTATION ( #98, #44 ) ;
#69 = CARTESIAN_POINT ( 'NONE',  ( 0.000000000000000000, 0.000000000000000000, 0.002000000000000000042 ) ) ;
#70 = ORIENTED_EDGE ( 'NONE', *, *, #28, .T. ) ;
#71 = CALENDAR_DATE ( 2022, 12, 8 ) ;
#72 = CIRCLE ( 'NONE', #155, 0.1460970000000000046 ) ;
#73 = VERTEX_POINT ( 'NONE', #129 ) ;
#74 = CONICAL_SURFACE ( 'NONE', #299, 0.01269999999999999948, 0.7418789625233158658 ) ;
#75 = DIRECTION ( 'NONE',  ( -1.224646799147353207E-16, -1.000000000000000000, 0.000000000000000000 ) ) ;
#76 = CIRCLE ( 'NONE', #109, 0.01250037947727976155 ) ;
#77 = VERTEX_POINT ( 'NONE', #262 ) ;
#78 = CARTESIAN_POINT ( 'NONE',  ( 1.530854971497791906E-18, -0.01250037947727975982, 0.002430764483496409330 ) ) ;
#79 = CARTESIAN_POINT ( 'NONE',  ( 0.000000000000000000, 0.000000000000000000, 0.000000000000000000 ) ) ;
#80 = AXIS2_PLACEMENT_3D ( 'NONE', #69, #164, #89 ) ;
#81 = DATE_TIME_ROLE ( 'creation_date' ) ;
#82 = ORIENTED_EDGE ( 'NONE', *, *, #195, .T. ) ;
#83 = ORGANIZATION ( 'UNSPECIFIED', 'UNSPECIFIED', '' ) ;
#84 = CARTESIAN_POINT ( 'NONE',  ( 0.000000000000000000, 2.673827437114623929E-17, -0.001464193536130919959 ) ) ;
#85 = ADVANCED_FACE ( 'NONE', ( #17 ), #212, .F. ) ;
#86 = CONICAL_SURFACE ( 'NONE', #249, 0.01269999999999999948, 0.7418789625233158658 ) ;
#87 = CARTESIAN_POINT ( 'NONE',  ( 0.000000000000000000, 0.000000000000000000, 0.1440970000000000029 ) ) ;
#88 = ADVANCED_FACE ( 'NONE', ( #91 ), #286, .T. ) ;
#89 = DIRECTION ( 'NONE',  ( 0.000000000000000000, -1.000000000000000000, -1.707404996040164512E-16 ) ) ;
#90 = CALENDAR_DATE ( 2022, 12, 8 ) ;
#91 = FACE_OUTER_BOUND ( 'NONE', #188, .T. ) ;
#92 = MANIFOLD_SOLID_BREP ( 'TTN225645-1-solid1', #213 ) ;
#93 = VERTEX_POINT ( 'NONE', #113 ) ;
#94 = EDGE_LOOP ( 'NONE', ( #222, #142, #106, #239 ) ) ;
#95 = DIRECTION ( 'NONE',  ( 0.000000000000000000, 1.000000000000000000, 1.528474894852630253E-16 ) ) ;
#96 = CIRCLE ( 'NONE', #272, 0.1460970000000000046 ) ;
#97 = DIRECTION ( 'NONE',  ( 0.000000000000000000, -0.6756742752717439515, 0.7372002941779145502 ) ) ;
#98 = PRODUCT_DEFINITION_SHAPE ( 'NONE', 'NONE',  #295 ) ;
#99 = CARTESIAN_POINT ( 'NONE',  ( 1.555301434917138519E-18, 0.01269999999999999948, -0.001246956964897680655 ) ) ;
#100 = CARTESIAN_POINT ( 'NONE',  ( 0.000000000000000000, 1.789083600040664058E-17, -0.002000000000000001776 ) ) ;
#101 = FACE_OUTER_BOUND ( 'NONE', #94, .T. ) ;
#102 = APPROVAL_ROLE ( '' ) ;
#103 = EDGE_CURVE ( 'NONE', #77, #168, #143, .T. ) ;
#104 = DIRECTION ( 'NONE',  ( 0.000000000000000000, 0.000000000000000000, 1.000000000000000000 ) ) ;
#105 = SECURITY_CLASSIFICATION_LEVEL ( 'unclassified' ) ;
#106 = ORIENTED_EDGE ( 'NONE', *, *, #9, .F. ) ;
#107 = CALENDAR_DATE ( 2022, 12, 8 ) ;
#108 = COORDINATED_UNIVERSAL_TIME_OFFSET ( 5, 0, .BEHIND. ) ;
#109 = AXIS2_PLACEMENT_3D ( 'NONE', #221, #175, #123 ) ;
#110 = EDGE_LOOP ( 'NONE', ( #211, #64, #203 ) ) ;
#111 = ADVANCED_FACE ( 'NONE', ( #314 ), #278, .T. ) ;
#112 = PERSON_AND_ORGANIZATION ( #260, #83 ) ;
#113 = CARTESIAN_POINT ( 'NONE',  ( 1.555301434917138519E-18, 0.01269999999999999948, -0.001246956964897681088 ) ) ;
#114 = AXIS2_PLACEMENT_3D ( 'NONE', #223, #145, #201 ) ;
#115 = VERTEX_POINT ( 'NONE', #199 ) ;
#116 = PERSON_AND_ORGANIZATION ( #260, #83 ) ;
#117 = EDGE_CURVE ( 'NONE', #276, #73, #37, .T. ) ;
#118 = LOCAL_TIME ( 11, 57, 53.00000000000000000, #254 ) ;
#119 = DIRECTION ( 'NONE',  ( 1.224646799147353207E-16, 1.000000000000000000, 0.000000000000000000 ) ) ;
#120 = VERTEX_POINT ( 'NONE', #100 ) ;
#121 = CARTESIAN_POINT ( 'NONE',  ( 1.555301434917138519E-18, 0.01269999999999999948, 0.002000000000000002210 ) ) ;
#122 = APPROVAL_PERSON_ORGANIZATION ( #112, #309, #63 ) ;
#123 = DIRECTION ( 'NONE',  ( 0.000000000000000000, -1.000000000000000000, -1.734670814523848976E-16 ) ) ;
#124 = MECHANICAL_CONTEXT ( 'NONE', #126, 'mechanical' ) ;
#125 = DIRECTION ( 'NONE',  ( 0.000000000000000000, 1.836909530733584130E-16, -1.000000000000000000 ) ) ;
#126 = APPLICATION_CONTEXT ( 'configuration controlled 3d designs of mechanical parts and assemblies' ) ;
#127 = EDGE_CURVE ( 'NONE', #93, #73, #45, .T. ) ;
#128 = DIRECTION ( 'NONE',  ( 0.000000000000000000, 1.000000000000000000, 1.734670814523849222E-16 ) ) ;
#129 = CARTESIAN_POINT ( 'NONE',  ( 1.555301434917138519E-18, 0.01269999999999999948, 0.002244649245419452158 ) ) ;
#130 = ORIENTED_EDGE ( 'NONE', *, *, #214, .F. ) ;
#131 = SPHERICAL_SURFACE ( 'NONE', #171, 0.1460970000000000046 ) ;
#132 = DIRECTION ( 'NONE',  ( 1.000000000000000000, 0.000000000000000000, 0.000000000000000000 ) ) ;
#133 = ADVANCED_FACE ( 'NONE', ( #178 ), #66, .F. ) ;
#134 = CARTESIAN_POINT ( 'NONE',  ( 0.000000000000000000, 0.000000000000000000, 0.1835899999999999754 ) ) ;
#135 = EDGE_CURVE ( 'NONE', #230, #168, #76, .T. ) ;
#136 = VECTOR ( 'NONE', #97, 1.000000000000000000 ) ;
#137 = EDGE_CURVE ( 'NONE', #290, #282, #245, .T. ) ;
#138 = DIRECTION ( 'NONE',  ( 0.000000000000000000, -1.000000000000000000, -1.908059392515409064E-16 ) ) ;
#139 = DATE_AND_TIME ( #71, #118 ) ;
#140 = FACE_OUTER_BOUND ( 'NONE', #1, .T. ) ;
#141 = PRODUCT ( 'TTN225633-E0W', 'TTN225633-E0W', '', ( #124 ) ) ;
#142 = ORIENTED_EDGE ( 'NONE', *, *, #198, .T. ) ;
#143 = CIRCLE ( 'NONE', #35, 0.1815900000000000014 ) ;
#144 = AXIS2_PLACEMENT_3D ( 'NONE', #5, #176, #95 ) ;
#145 = DIRECTION ( 'NONE',  ( 0.000000000000000000, 1.836909530733584130E-16, -1.000000000000000000 ) ) ;
#146 = ORIENTED_EDGE ( 'NONE', *, *, #24, .T. ) ;
#147 = LOCAL_TIME ( 11, 57, 53.00000000000000000, #289 ) ;
#148 = FACE_OUTER_BOUND ( 'NONE', #41, .T. ) ;
#149 = DIRECTION ( 'NONE',  ( 0.000000000000000000, -1.000000000000000000, -1.734670814523848976E-16 ) ) ;
#150 = DIRECTION ( 'NONE',  ( -0.000000000000000000, -1.836909530733566134E-16, 1.000000000000000000 ) ) ;
#151 = CARTESIAN_POINT ( 'NONE',  ( 0.000000000000000000, -7.912753852361197300E-20, 0.002430764483496411499 ) ) ;
#152 = ORIENTED_EDGE ( 'NONE', *, *, #137, .T. ) ;
#153 = ORIENTED_EDGE ( 'NONE', *, *, #180, .F. ) ;
#154 =( NAMED_UNIT ( * ) PLANE_ANGLE_UNIT ( ) SI_UNIT ( $, .RADIAN. ) );
#155 = AXIS2_PLACEMENT_3D ( 'NONE', #52, #275, #119 ) ;
#156 = PERSON_AND_ORGANIZATION_ROLE ( 'design_owner' ) ;
#157 = DATE_TIME_ROLE ( 'classification_date' ) ;
#158 = DIRECTION ( 'NONE',  ( 0.000000000000000000, -1.000000000000000000, -1.707404996040164512E-16 ) ) ;
#159 = EDGE_CURVE ( 'NONE', #93, #115, #327, .T. ) ;
#160 = EDGE_LOOP ( 'NONE', ( #297, #216, #130, #16 ) ) ;
#161 = DATE_AND_TIME ( #59, #147 ) ;
#162 = LINE ( 'NONE', #78, #202 ) ;
#163 = DIRECTION ( 'NONE',  ( 0.000000000000000000, 0.000000000000000000, -1.000000000000000000 ) ) ;
#164 = DIRECTION ( 'NONE',  ( -0.000000000000000000, -1.836909530733566134E-16, 1.000000000000000000 ) ) ;
#165 = ORIENTED_EDGE ( 'NONE', *, *, #198, .F. ) ;
#166 = AXIS2_PLACEMENT_3D ( 'NONE', #151, #277, #31 ) ;
#167 = APPROVAL ( #208, 'UNSPECIFIED' ) ;
#168 = VERTEX_POINT ( 'NONE', #8 ) ;
#169 = DATE_AND_TIME ( #107, #50 ) ;
#170 = LINE ( 'NONE', #273, #209 ) ;
#171 = AXIS2_PLACEMENT_3D ( 'NONE', #4, #15, #13 ) ;
#172 = PRODUCT_DEFINITION_FORMATION_WITH_SPECIFIED_SOURCE ( 'ANY', '', #141, .NOT_KNOWN. ) ;
#173 = DATE_AND_TIME ( #291, #189 ) ;
#174 = ORIENTED_EDGE ( 'NONE', *, *, #137, .F. ) ;
#175 = DIRECTION ( 'NONE',  ( -0.000000000000000000, -1.836909530733584130E-16, 1.000000000000000000 ) ) ;
#176 = DIRECTION ( 'NONE',  ( -1.000000000000000000, 0.000000000000000000, 0.000000000000000000 ) ) ;
#177 = DIRECTION ( 'NONE',  ( 0.000000000000000000, 1.836909530733499820E-16, -1.000000000000000000 ) ) ;
#178 = FACE_OUTER_BOUND ( 'NONE', #326, .T. ) ;
#179 = DIRECTION ( 'NONE',  ( -1.000000000000000000, 1.224646799147353207E-16, 2.249565377136128279E-32 ) ) ;
#180 = EDGE_CURVE ( 'NONE', #115, #276, #42, .T. ) ;
#181 =( LENGTH_UNIT ( ) NAMED_UNIT ( * ) SI_UNIT ( $, .METRE. ) );
#182 = CARTESIAN_POINT ( 'NONE',  ( 0.000000000000000000, -0.01269999999999999948, 0.002244649245419447822 ) ) ;
#183 = LOCAL_TIME ( 11, 57, 53.00000000000000000, #244 ) ;
#184 = APPROVAL_STATUS ( 'not_yet_approved' ) ;
#185 = AXIS2_PLACEMENT_3D ( 'NONE', #250, #7, #149 ) ;
#186 = APPROVAL_ROLE ( '' ) ;
#187 = CC_DESIGN_APPROVAL ( #167, ( #295 ) ) ;
#188 = EDGE_LOOP ( 'NONE', ( #218, #70, #152 ) ) ;
#189 = LOCAL_TIME ( 11, 57, 53.00000000000000000, #194 ) ;
#190 = LINE ( 'NONE', #298, #136 ) ;
#191 = CARTESIAN_POINT ( 'NONE',  ( 0.000000000000000000, 5.964366194702288182E-19, -0.001246956964897683474 ) ) ;
#192 = CARTESIAN_POINT ( 'NONE',  ( 0.000000000000000000, 0.000000000000000000, 0.1835899999999999754 ) ) ;
#193 = EDGE_LOOP ( 'NONE', ( #271, #49, #82 ) ) ;
#194 = COORDINATED_UNIVERSAL_TIME_OFFSET ( 5, 0, .BEHIND. ) ;
#195 = EDGE_CURVE ( 'NONE', #168, #230, #6, .T. ) ;
#196 = FACE_OUTER_BOUND ( 'NONE', #110, .T. ) ;
#197 = DIRECTION ( 'NONE',  ( 0.000000000000000000, 0.7314156724816865962, -0.6819318983946727197 ) ) ;
#198 = EDGE_CURVE ( 'NONE', #282, #93, #293, .T. ) ;
#199 = CARTESIAN_POINT ( 'NONE',  ( 0.000000000000000000, -0.01269999999999999948, -0.001246956964897685859 ) ) ;
#200 = AXIS2_PLACEMENT_3D ( 'NONE', #79, #104, #38 ) ;
#201 = DIRECTION ( 'NONE',  ( 0.000000000000000000, 1.000000000000000000, 1.707404996040164512E-16 ) ) ;
#202 = VECTOR ( 'NONE', #62, 1.000000000000000000 ) ;
#203 = ORIENTED_EDGE ( 'NONE', *, *, #57, .T. ) ;
#204 = APPLICATION_CONTEXT ( 'configuration controlled 3d designs of mechanical parts and assemblies' ) ;
#205 = PERSON_AND_ORGANIZATION_ROLE ( 'design_supplier' ) ;
#206 = CC_DESIGN_PERSON_AND_ORGANIZATION_ASSIGNMENT ( #321, #253, ( #295 ) ) ;
#207 = DIRECTION ( 'NONE',  ( -0.000000000000000000, -1.836909530733499820E-16, 1.000000000000000000 ) ) ;
#208 = APPROVAL_STATUS ( 'not_yet_approved' ) ;
#209 = VECTOR ( 'NONE', #197, 1.000000000000000000 ) ;
#210 = ADVANCED_FACE ( 'NONE', ( #304 ), #270, .T. ) ;
#211 = ORIENTED_EDGE ( 'NONE', *, *, #28, .F. ) ;
#212 = SPHERICAL_SURFACE ( 'NONE', #225, 0.1815900000000000014 ) ;
#213 = CLOSED_SHELL ( 'NONE', ( #210, #287, #111, #236, #85, #133, #88, #20, #319, #316 ) ) ;
#214 = EDGE_CURVE ( 'NONE', #73, #276, #235, .T. ) ;
#215 = EDGE_CURVE ( 'NONE', #120, #282, #72, .T. ) ;
#216 = ORIENTED_EDGE ( 'NONE', *, *, #317, .T. ) ;
#217 = APPROVAL ( #184, 'UNSPECIFIED' ) ;
#218 = ORIENTED_EDGE ( 'NONE', *, *, #215, .F. ) ;
#219 = PERSON_AND_ORGANIZATION ( #260, #83 ) ;
#220 =( GEOMETRIC_REPRESENTATION_CONTEXT ( 3 ) GLOBAL_UNCERTAINTY_ASSIGNED_CONTEXT ( ( #269 ) ) GLOBAL_UNIT_ASSIGNED_CONTEXT ( ( #181, #154, #228 ) ) REPRESENTATION_CONTEXT ( 'NONE', 'WORKASPACE' ) );
#221 = CARTESIAN_POINT ( 'NONE',  ( 0.000000000000000000, 3.327731263006752643E-17, 0.002430764483496467010 ) ) ;
#222 = ORIENTED_EDGE ( 'NONE', *, *, #57, .F. ) ;
#223 = CARTESIAN_POINT ( 'NONE',  ( 0.000000000000000000, -4.493985305977631325E-20, 0.002244649245419449990 ) ) ;
#224 = PERSON_AND_ORGANIZATION ( #260, #83 ) ;
#225 = AXIS2_PLACEMENT_3D ( 'NONE', #134, #322, #320 ) ;
#226 = EDGE_CURVE ( 'NONE', #290, #115, #190, .T. ) ;
#227 = PERSON_AND_ORGANIZATION_ROLE ( 'creator' ) ;
#228 =( NAMED_UNIT ( * ) SI_UNIT ( $, .STERADIAN. ) SOLID_ANGLE_UNIT ( ) );
#229 = ORIENTED_EDGE ( 'NONE', *, *, #226, .T. ) ;
#230 = VERTEX_POINT ( 'NONE', #14 ) ;
#231 = AXIS2_PLACEMENT_3D ( 'NONE', #296, #300, #2 ) ;
#232 = CARTESIAN_POINT ( 'NONE',  ( 0.000000000000000000, 5.964366194702285293E-19, -0.001246956964897683040 ) ) ;
#233 = DIRECTION ( 'NONE',  ( -1.000000000000000000, 0.000000000000000000, -0.000000000000000000 ) ) ;
#234 = DIRECTION ( 'NONE',  ( -0.000000000000000000, -1.836909530733566134E-16, 1.000000000000000000 ) ) ;
#235 = CIRCLE ( 'NONE', #231, 0.01269999999999999948 ) ;
#236 = ADVANCED_FACE ( 'NONE', ( #196 ), #131, .T. ) ;
#237 = DIRECTION ( 'NONE',  ( -0.000000000000000000, -1.836909530733499820E-16, 1.000000000000000000 ) ) ;
#238 = DIRECTION ( 'NONE',  ( 1.000000000000000000, 0.000000000000000000, 0.000000000000000000 ) ) ;
#239 = ORIENTED_EDGE ( 'NONE', *, *, #226, .F. ) ;
#240 = PERSON_AND_ORGANIZATION ( #260, #83 ) ;
#241 = ORIENTED_EDGE ( 'NONE', *, *, #127, .T. ) ;
#242 = CC_DESIGN_APPROVAL ( #309, ( #172 ) ) ;
#243 = CIRCLE ( 'NONE', #302, 0.01269999999999999948 ) ;
#244 = COORDINATED_UNIVERSAL_TIME_OFFSET ( 5, 0, .BEHIND. ) ;
#245 = CIRCLE ( 'NONE', #51, 0.01250089378152754310 ) ;
#246 = ORIENTED_EDGE ( 'NONE', *, *, #159, .F. ) ;
#247 = AXIS2_PLACEMENT_3D ( 'NONE', #256, #125, #128 ) ;
#248 = DIRECTION ( 'NONE',  ( -0.000000000000000000, -1.836909530733499820E-16, 1.000000000000000000 ) ) ;
#249 = AXIS2_PLACEMENT_3D ( 'NONE', #61, #207, #281 ) ;
#250 = CARTESIAN_POINT ( 'NONE',  ( 0.000000000000000000, 3.327731263006752643E-17, 0.002430764483496467010 ) ) ;
#251 = ORIENTED_EDGE ( 'NONE', *, *, #268, .T. ) ;
#252 = CARTESIAN_POINT ( 'NONE',  ( 0.000000000000000000, -0.01269999999999999948, 0.001999999999999997873 ) ) ;
#253 = PERSON_AND_ORGANIZATION_ROLE ( 'creator' ) ;
#254 = COORDINATED_UNIVERSAL_TIME_OFFSET ( 5, 0, .BEHIND. ) ;
#255 = DESIGN_CONTEXT ( 'detailed design', #204, 'design' ) ;
#256 = CARTESIAN_POINT ( 'NONE',  ( 0.000000000000000000, -7.912753852361197300E-20, 0.002430764483496411499 ) ) ;
#257 = CC_DESIGN_DATE_AND_TIME_ASSIGNMENT ( #161, #157, ( #65 ) ) ;
#258 = ORIENTED_EDGE ( 'NONE', *, *, #135, .T. ) ;
#259 = CARTESIAN_POINT ( 'NONE',  ( 0.000000000000000000, 0.000000000000000000, 0.002000000000000000042 ) ) ;
#260 = PERSON ( 'UNSPECIFIED', 'UNSPECIFIED', 'UNSPECIFIED', ('UNSPECIFIED'), ('UNSPECIFIED'), ('UNSPECIFIED') ) ;
#261 = ORIENTED_EDGE ( 'NONE', *, *, #317, .F. ) ;
#262 = CARTESIAN_POINT ( 'NONE',  ( 0.000000000000000000, 4.447562078144922145E-17, 0.001999999999999974021 ) ) ;
#263 = DIRECTION ( 'NONE',  ( 0.000000000000000000, 1.836909530733499820E-16, -1.000000000000000000 ) ) ;
#264 = AXIS2_PLACEMENT_3D ( 'NONE', #34, #248, #301 ) ;
#265 = ORIENTED_EDGE ( 'NONE', *, *, #117, .T. ) ;
#266 = APPROVAL_DATE_TIME ( #139, #309 ) ;
#267 = CIRCLE ( 'NONE', #307, 0.01250089378152754310 ) ;
#268 = EDGE_CURVE ( 'NONE', #230, #73, #170, .T. ) ;
#269 = UNCERTAINTY_MEASURE_WITH_UNIT (LENGTH_MEASURE( 1.000000000000000082E-05 ), #181, 'distance_accuracy_value', 'NONE');
#270 = CONICAL_SURFACE ( 'NONE', #166, 0.01250037947727975982, 0.8203956194508476019 ) ;
#271 = ORIENTED_EDGE ( 'NONE', *, *, #24, .F. ) ;
#272 = AXIS2_PLACEMENT_3D ( 'NONE', #87, #233, #311 ) ;
#273 = CARTESIAN_POINT ( 'NONE',  ( 0.000000000000000000, 0.01250037947727975982, 0.002430764483496413667 ) ) ;
#274 = CC_DESIGN_APPROVAL ( #217, ( #65 ) ) ;
#275 = DIRECTION ( 'NONE',  ( 1.000000000000000000, -1.224646799147353207E-16, -2.249565377136128279E-32 ) ) ;
#276 = VERTEX_POINT ( 'NONE', #182 ) ;
#277 = DIRECTION ( 'NONE',  ( 0.000000000000000000, 1.836909530733584130E-16, -1.000000000000000000 ) ) ;
#278 = CYLINDRICAL_SURFACE ( 'NONE', #80, 0.01269999999999999948 ) ;
#279 = DIRECTION ( 'NONE',  ( 0.000000000000000000, -1.000000000000000000, -1.908059392515409064E-16 ) ) ;
#280 = CC_DESIGN_DATE_AND_TIME_ASSIGNMENT ( #313, #81, ( #295 ) ) ;
#281 = DIRECTION ( 'NONE',  ( 0.000000000000000000, -1.000000000000000000, -1.878145495644181086E-16 ) ) ;
#282 = VERTEX_POINT ( 'NONE', #284 ) ;
#283 = CARTESIAN_POINT ( 'NONE',  ( 0.000000000000000000, -0.01250089378152761943, -0.001464193536130921260 ) ) ;
#284 = CARTESIAN_POINT ( 'NONE',  ( 1.530917955602888755E-18, 0.01250089378152767494, -0.001464193536130918658 ) ) ;
#285 = APPROVAL_PERSON_ORGANIZATION ( #43, #167, #186 ) ;
#286 = SPHERICAL_SURFACE ( 'NONE', #19, 0.1460970000000000046 ) ;
#287 = ADVANCED_FACE ( 'NONE', ( #101 ), #86, .T. ) ;
#288 = AXIS2_PLACEMENT_3D ( 'NONE', #259, #234, #158 ) ;
#289 = COORDINATED_UNIVERSAL_TIME_OFFSET ( 5, 0, .BEHIND. ) ;
#290 = VERTEX_POINT ( 'NONE', #283 ) ;
#291 = CALENDAR_DATE ( 2022, 12, 8 ) ;
#292 = CC_DESIGN_SECURITY_CLASSIFICATION ( #65, ( #172 ) ) ;
#293 = LINE ( 'NONE', #99, #26 ) ;
#294 = CYLINDRICAL_SURFACE ( 'NONE', #288, 0.01269999999999999948 ) ;
#295 = PRODUCT_DEFINITION ( 'UNKNOWN', '', #172, #255 ) ;
#296 = CARTESIAN_POINT ( 'NONE',  ( 0.000000000000000000, -4.493985305977631325E-20, 0.002244649245419449990 ) ) ;
#297 = ORIENTED_EDGE ( 'NONE', *, *, #195, .F. ) ;
#298 = CARTESIAN_POINT ( 'NONE',  ( 0.000000000000000000, -0.01269999999999999948, -0.001246956964897685425 ) ) ;
#299 = AXIS2_PLACEMENT_3D ( 'NONE', #232, #310, #56 ) ;
#300 = DIRECTION ( 'NONE',  ( 0.000000000000000000, 1.836909530733584130E-16, -1.000000000000000000 ) ) ;
#301 = DIRECTION ( 'NONE',  ( 0.000000000000000000, -1.000000000000000000, -1.878145495644181086E-16 ) ) ;
#302 = AXIS2_PLACEMENT_3D ( 'NONE', #191, #237, #67 ) ;
#303 = DIRECTION ( 'NONE',  ( -0.000000000000000000, -1.836909530733566134E-16, 1.000000000000000000 ) ) ;
#304 = FACE_OUTER_BOUND ( 'NONE', #160, .T. ) ;
#305 = ORIENTED_EDGE ( 'NONE', *, *, #127, .F. ) ;
#306 = APPLICATION_PROTOCOL_DEFINITION ( 'international standard', 'config_control_design', 1994, #126 ) ;
#307 = AXIS2_PLACEMENT_3D ( 'NONE', #84, #263, #138 ) ;
#308 = PERSON_AND_ORGANIZATION_ROLE ( 'classification_officer' ) ;
#309 = APPROVAL ( #39, 'UNSPECIFIED' ) ;
#310 = DIRECTION ( 'NONE',  ( -0.000000000000000000, -1.836909530733499820E-16, 1.000000000000000000 ) ) ;
#311 = DIRECTION ( 'NONE',  ( 0.000000000000000000, 0.000000000000000000, 1.000000000000000000 ) ) ;
#312 = ORIENTED_EDGE ( 'NONE', *, *, #180, .T. ) ;
#313 = DATE_AND_TIME ( #90, #183 ) ;
#314 = FACE_OUTER_BOUND ( 'NONE', #30, .T. ) ;
#315 = CC_DESIGN_PERSON_AND_ORGANIZATION_ASSIGNMENT ( #116, #227, ( #172 ) ) ;
#316 = ADVANCED_FACE ( 'NONE', ( #140 ), #10, .T. ) ;
#317 = EDGE_CURVE ( 'NONE', #168, #276, #162, .T. ) ;
#318 = CARTESIAN_POINT ( 'NONE',  ( 0.000000000000000000, 0.000000000000000000, 0.1835899999999999754 ) ) ;
#319 = ADVANCED_FACE ( 'NONE', ( #148 ), #74, .T. ) ;
#320 = DIRECTION ( 'NONE',  ( 0.000000000000000000, 1.000000000000000000, 1.528474894852630253E-16 ) ) ;
#321 = PERSON_AND_ORGANIZATION ( #260, #83 ) ;
#322 = DIRECTION ( 'NONE',  ( -1.000000000000000000, 0.000000000000000000, 0.000000000000000000 ) ) ;
#323 = CC_DESIGN_PERSON_AND_ORGANIZATION_ASSIGNMENT ( #219, #156, ( #141 ) ) ;
#324 = EDGE_LOOP ( 'NONE', ( #305, #54, #312, #265 ) ) ;
#325 = PERSON_AND_ORGANIZATION ( #260, #83 ) ;
#326 = EDGE_LOOP ( 'NONE', ( #60, #146, #258 ) ) ;
#327 = CIRCLE ( 'NONE', #264, 0.01269999999999999948 ) ;
ENDSEC;
END-ISO-10303-21;
