ISO-10303-21;
HEADER;
FILE_DESCRIPTION (( 'STEP AP203' ),
    '1' );
FILE_NAME ('Web Model 11906_11906.step',
    '2019-04-22T14:58:17',
    ( '' ),
    ( '' ),
    'SwSTEP 2.0',
    'SolidWorks 2018',
    '' );
FILE_SCHEMA (( 'CONFIG_CONTROL_DESIGN' ));
ENDSEC;

DATA;
#1 = DATE_AND_TIME ( #80, #57 ) ;
#2 = VERTEX_POINT ( 'NONE', #140 ) ;
#3 = CC_DESIGN_PERSON_AND_ORGANIZATION_ASSIGNMENT ( #127, #55, ( #139 ) ) ;
#4 = APPROVAL_PERSON_ORGANIZATION ( #104, #11, #54 ) ;
#5 = ORIENTED_EDGE ( 'NONE', *, *, #107, .T. ) ;
#6 = ORIENTED_EDGE ( 'NONE', *, *, #171, .F. ) ;
#7 = AXIS2_PLACEMENT_3D ( 'NONE', #126, #62, #18 ) ;
#8 = PLANE ( 'NONE',  #14 ) ;
#9 = APPROVAL_PERSON_ORGANIZATION ( #145, #83, #121 ) ;
#10 = DIRECTION ( 'NONE',  ( 1.000000000000000000, 0.0000000000000000000, 0.0000000000000000000 ) ) ;
#11 = APPROVAL ( #149, 'UNSPECIFIED' ) ;
#12 = LOCAL_TIME ( 10, 58, 17.00000000000000000, #69 ) ;
#13 = CIRCLE ( 'NONE', #75, 25.00000000000000000 ) ;
#14 = AXIS2_PLACEMENT_3D ( 'NONE', #40, #85, #173 ) ;
#15 = COORDINATED_UNIVERSAL_TIME_OFFSET ( 5, 0, .BEHIND. ) ;
#16 = LINE ( 'NONE', #130, #134 ) ;
#17 = PERSON ( 'UNSPECIFIED', 'UNSPECIFIED', 'UNSPECIFIED', ('UNSPECIFIED'), ('UNSPECIFIED'), ('UNSPECIFIED') ) ;
#18 = DIRECTION ( 'NONE',  ( 1.000000000000000000, 0.0000000000000000000, 0.0000000000000000000 ) ) ;
#19 = AXIS2_PLACEMENT_3D ( 'NONE', #109, #128, #32 ) ;
#20 = APPROVAL_DATE_TIME ( #159, #11 ) ;
#21 = DIRECTION ( 'NONE',  ( 1.000000000000000000, 0.0000000000000000000, 0.0000000000000000000 ) ) ;
#22 = APPROVAL_DATE_TIME ( #100, #94 ) ;
#23 = ORIENTED_EDGE ( 'NONE', *, *, #122, .T. ) ;
#24 = COORDINATED_UNIVERSAL_TIME_OFFSET ( 5, 0, .BEHIND. ) ;
#25 =( GEOMETRIC_REPRESENTATION_CONTEXT ( 3 ) GLOBAL_UNCERTAINTY_ASSIGNED_CONTEXT ( ( #46 ) ) GLOBAL_UNIT_ASSIGNED_CONTEXT ( ( #116, #103, #131 ) ) REPRESENTATION_CONTEXT ( 'NONE', 'WORKASPACE' ) );
#26 = APPLICATION_CONTEXT ( 'configuration controlled 3d designs of mechanical parts and assemblies' ) ;
#27 = COORDINATED_UNIVERSAL_TIME_OFFSET ( 5, 0, .BEHIND. ) ;
#28 = AXIS2_PLACEMENT_3D ( 'NONE', #60, #162, #144 ) ;
#29 = CALENDAR_DATE ( 2019, 22, 4 ) ;
#30 = CIRCLE ( 'NONE', #96, 25.00000000000000000 ) ;
#31 = AXIS2_PLACEMENT_3D ( 'NONE', #86, #117, #132 ) ;
#32 = DIRECTION ( 'NONE',  ( -1.000000000000000000, 0.0000000000000000000, 0.0000000000000000000 ) ) ;
#33 = FACE_OUTER_BOUND ( 'NONE', #99, .T. ) ;
#34 = SECURITY_CLASSIFICATION_LEVEL ( 'unclassified' ) ;
#35 = CARTESIAN_POINT ( 'NONE',  ( 0.0000000000000000000, 0.0000000000000000000, 1.000000000000000000 ) ) ;
#36 = CC_DESIGN_PERSON_AND_ORGANIZATION_ASSIGNMENT ( #76, #93, ( #67 ) ) ;
#37 = PERSON_AND_ORGANIZATION ( #17, #51 ) ;
#38 = DIRECTION ( 'NONE',  ( -1.000000000000000000, 0.0000000000000000000, 0.0000000000000000000 ) ) ;
#39 = CLOSED_SHELL ( 'NONE', ( #61, #123, #79, #129 ) ) ;
#40 = CARTESIAN_POINT ( 'NONE',  ( 0.0000000000000000000, 0.0000000000000000000, 0.0000000000000000000 ) ) ;
#41 = EDGE_LOOP ( 'NONE', ( #170, #5 ) ) ;
#42 = APPLICATION_CONTEXT ( 'configuration controlled 3d designs of mechanical parts and assemblies' ) ;
#43 = CC_DESIGN_PERSON_AND_ORGANIZATION_ASSIGNMENT ( #45, #158, ( #59 ) ) ;
#44 = PRODUCT_DEFINITION_SHAPE ( 'NONE', 'NONE',  #59 ) ;
#45 = PERSON_AND_ORGANIZATION ( #17, #51 ) ;
#46 = UNCERTAINTY_MEASURE_WITH_UNIT (LENGTH_MEASURE( 1.000000000000000082E-05 ), #116, 'distance_accuracy_value', 'NONE');
#47 = PERSON_AND_ORGANIZATION_ROLE ( 'classification_officer' ) ;
#48 = APPROVAL_PERSON_ORGANIZATION ( #174, #94, #56 ) ;
#49 = DIRECTION ( 'NONE',  ( 1.000000000000000000, 0.0000000000000000000, 0.0000000000000000000 ) ) ;
#50 = PLANE ( 'NONE',  #28 ) ;
#51 = ORGANIZATION ( 'UNSPECIFIED', 'UNSPECIFIED', '' ) ;
#52 = CARTESIAN_POINT ( 'NONE',  ( -25.00000000000000000, 0.0000000000000000000, 0.0000000000000000000 ) ) ;
#53 = MECHANICAL_CONTEXT ( 'NONE', #26, 'mechanical' ) ;
#54 = APPROVAL_ROLE ( '' ) ;
#55 = PERSON_AND_ORGANIZATION_ROLE ( 'design_owner' ) ;
#56 = APPROVAL_ROLE ( '' ) ;
#57 = LOCAL_TIME ( 10, 58, 17.00000000000000000, #169 ) ;
#58 = ORIENTED_EDGE ( 'NONE', *, *, #101, .F. ) ;
#59 = PRODUCT_DEFINITION ( 'UNKNOWN', '', #67, #164 ) ;
#60 = CARTESIAN_POINT ( 'NONE',  ( 0.0000000000000000000, 0.0000000000000000000, 1.000000000000000000 ) ) ;
#61 = ADVANCED_FACE ( 'NONE', ( #33 ), #157, .T. ) ;
#62 = DIRECTION ( 'NONE',  ( 0.0000000000000000000, 0.0000000000000000000, 1.000000000000000000 ) ) ;
#63 = CC_DESIGN_PERSON_AND_ORGANIZATION_ASSIGNMENT ( #37, #125, ( #67 ) ) ;
#64 = CARTESIAN_POINT ( 'NONE',  ( -25.00000000000000000, 0.0000000000000000000, 1.000000000000000000 ) ) ;
#65 = PERSON_AND_ORGANIZATION ( #17, #51 ) ;
#66 = CIRCLE ( 'NONE', #84, 25.00000000000000000 ) ;
#67 = PRODUCT_DEFINITION_FORMATION_WITH_SPECIFIED_SOURCE ( 'ANY', '', #139, .NOT_KNOWN. ) ;
#68 = CARTESIAN_POINT ( 'NONE',  ( 0.0000000000000000000, 0.0000000000000000000, 0.0000000000000000000 ) ) ;
#69 = COORDINATED_UNIVERSAL_TIME_OFFSET ( 5, 0, .BEHIND. ) ;
#70 = ORIENTED_EDGE ( 'NONE', *, *, #166, .T. ) ;
#71 = DIRECTION ( 'NONE',  ( 0.0000000000000000000, 0.0000000000000000000, 1.000000000000000000 ) ) ;
#72 = CC_DESIGN_APPROVAL ( #11, ( #59 ) ) ;
#73 = LINE ( 'NONE', #64, #138 ) ;
#74 = ADVANCED_BREP_SHAPE_REPRESENTATION ( 'Web Model 11906_11906', ( #90, #31 ), #25 ) ;
#75 = AXIS2_PLACEMENT_3D ( 'NONE', #68, #71, #10 ) ;
#76 = PERSON_AND_ORGANIZATION ( #17, #51 ) ;
#77 = ORIENTED_EDGE ( 'NONE', *, *, #122, .F. ) ;
#78 = CC_DESIGN_APPROVAL ( #83, ( #67 ) ) ;
#79 = ADVANCED_FACE ( 'NONE', ( #89 ), #50, .T. ) ;
#80 = CALENDAR_DATE ( 2019, 22, 4 ) ;
#81 = FACE_OUTER_BOUND ( 'NONE', #115, .T. ) ;
#82 = DIRECTION ( 'NONE',  ( -0.0000000000000000000, -0.0000000000000000000, -1.000000000000000000 ) ) ;
#83 = APPROVAL ( #136, 'UNSPECIFIED' ) ;
#84 = AXIS2_PLACEMENT_3D ( 'NONE', #161, #168, #21 ) ;
#85 = DIRECTION ( 'NONE',  ( 0.0000000000000000000, 0.0000000000000000000, 1.000000000000000000 ) ) ;
#86 = CARTESIAN_POINT ( 'NONE',  ( 0.0000000000000000000, 0.0000000000000000000, 0.0000000000000000000 ) ) ;
#87 = DATE_TIME_ROLE ( 'creation_date' ) ;
#88 = CALENDAR_DATE ( 2019, 22, 4 ) ;
#89 = FACE_OUTER_BOUND ( 'NONE', #41, .T. ) ;
#90 = MANIFOLD_SOLID_BREP ( '34599-1-solid1', #39 ) ;
#91 = SECURITY_CLASSIFICATION ( '', '', #34 ) ;
#92 = CYLINDRICAL_SURFACE ( 'NONE', #19, 25.00000000000000000 ) ;
#93 = PERSON_AND_ORGANIZATION_ROLE ( 'creator' ) ;
#94 = APPROVAL ( #137, 'UNSPECIFIED' ) ;
#95 = CARTESIAN_POINT ( 'NONE',  ( 0.0000000000000000000, 0.0000000000000000000, 1.000000000000000000 ) ) ;
#96 = AXIS2_PLACEMENT_3D ( 'NONE', #35, #143, #49 ) ;
#97 = DIRECTION ( 'NONE',  ( -0.0000000000000000000, -0.0000000000000000000, -1.000000000000000000 ) ) ;
#98 = SHAPE_DEFINITION_REPRESENTATION ( #44, #74 ) ;
#99 = EDGE_LOOP ( 'NONE', ( #119, #70, #23, #58 ) ) ;
#100 = DATE_AND_TIME ( #88, #133 ) ;
#101 = EDGE_CURVE ( 'NONE', #151, #175, #73, .T. ) ;
#102 = APPLICATION_PROTOCOL_DEFINITION ( 'international standard', 'config_control_design', 1994, #42 ) ;
#103 =( NAMED_UNIT ( * ) PLANE_ANGLE_UNIT ( ) SI_UNIT ( $, .RADIAN. ) );
#104 = PERSON_AND_ORGANIZATION ( #17, #51 ) ;
#105 = CC_DESIGN_PERSON_AND_ORGANIZATION_ASSIGNMENT ( #65, #47, ( #91 ) ) ;
#106 = ORIENTED_EDGE ( 'NONE', *, *, #101, .T. ) ;
#107 = EDGE_CURVE ( 'NONE', #2, #151, #153, .T. ) ;
#108 = CALENDAR_DATE ( 2019, 22, 4 ) ;
#109 = CARTESIAN_POINT ( 'NONE',  ( 0.0000000000000000000, 0.0000000000000000000, 1.000000000000000000 ) ) ;
#110 = DIRECTION ( 'NONE',  ( -0.0000000000000000000, -0.0000000000000000000, -1.000000000000000000 ) ) ;
#111 = APPROVAL_DATE_TIME ( #118, #83 ) ;
#112 = EDGE_LOOP ( 'NONE', ( #155, #172, #106, #147 ) ) ;
#113 = CC_DESIGN_DATE_AND_TIME_ASSIGNMENT ( #141, #154, ( #91 ) ) ;
#114 = CC_DESIGN_APPROVAL ( #94, ( #91 ) ) ;
#115 = EDGE_LOOP ( 'NONE', ( #6, #77 ) ) ;
#116 =( LENGTH_UNIT ( ) NAMED_UNIT ( * ) SI_UNIT ( .MILLI., .METRE. ) );
#117 = DIRECTION ( 'NONE',  ( 0.0000000000000000000, 0.0000000000000000000, 1.000000000000000000 ) ) ;
#118 = DATE_AND_TIME ( #108, #150 ) ;
#119 = ORIENTED_EDGE ( 'NONE', *, *, #107, .F. ) ;
#120 = EDGE_CURVE ( 'NONE', #151, #2, #30, .T. ) ;
#121 = APPROVAL_ROLE ( '' ) ;
#122 = EDGE_CURVE ( 'NONE', #160, #175, #66, .T. ) ;
#123 = ADVANCED_FACE ( 'NONE', ( #152 ), #92, .T. ) ;
#124 = CC_DESIGN_DATE_AND_TIME_ASSIGNMENT ( #1, #87, ( #59 ) ) ;
#125 = PERSON_AND_ORGANIZATION_ROLE ( 'design_supplier' ) ;
#126 = CARTESIAN_POINT ( 'NONE',  ( 0.0000000000000000000, 0.0000000000000000000, 1.000000000000000000 ) ) ;
#127 = PERSON_AND_ORGANIZATION ( #17, #51 ) ;
#128 = DIRECTION ( 'NONE',  ( -0.0000000000000000000, -0.0000000000000000000, -1.000000000000000000 ) ) ;
#129 = ADVANCED_FACE ( 'NONE', ( #81 ), #8, .F. ) ;
#130 = CARTESIAN_POINT ( 'NONE',  ( 25.00000000000000000, 3.061616997868383043E-15, 1.000000000000000000 ) ) ;
#131 =( NAMED_UNIT ( * ) SI_UNIT ( $, .STERADIAN. ) SOLID_ANGLE_UNIT ( ) );
#132 = DIRECTION ( 'NONE',  ( 1.000000000000000000, 0.0000000000000000000, 0.0000000000000000000 ) ) ;
#133 = LOCAL_TIME ( 10, 58, 17.00000000000000000, #27 ) ;
#134 = VECTOR ( 'NONE', #97, 1000.000000000000000 ) ;
#135 = CC_DESIGN_SECURITY_CLASSIFICATION ( #91, ( #67 ) ) ;
#136 = APPROVAL_STATUS ( 'not_yet_approved' ) ;
#137 = APPROVAL_STATUS ( 'not_yet_approved' ) ;
#138 = VECTOR ( 'NONE', #82, 1000.000000000000000 ) ;
#139 = PRODUCT ( 'Web Model 11906_11906', 'Web Model 11906_11906', '', ( #53 ) ) ;
#140 = CARTESIAN_POINT ( 'NONE',  ( 25.00000000000000000, 3.061616997868383043E-15, 1.000000000000000000 ) ) ;
#141 = DATE_AND_TIME ( #163, #12 ) ;
#142 = AXIS2_PLACEMENT_3D ( 'NONE', #95, #110, #38 ) ;
#143 = DIRECTION ( 'NONE',  ( 0.0000000000000000000, 0.0000000000000000000, 1.000000000000000000 ) ) ;
#144 = DIRECTION ( 'NONE',  ( 1.000000000000000000, 0.0000000000000000000, -0.0000000000000000000 ) ) ;
#145 = PERSON_AND_ORGANIZATION ( #17, #51 ) ;
#146 = PRODUCT_RELATED_PRODUCT_CATEGORY ( 'detail', '', ( #139 ) ) ;
#147 = ORIENTED_EDGE ( 'NONE', *, *, #171, .T. ) ;
#148 = CARTESIAN_POINT ( 'NONE',  ( -25.00000000000000000, 0.0000000000000000000, 1.000000000000000000 ) ) ;
#149 = APPROVAL_STATUS ( 'not_yet_approved' ) ;
#150 = LOCAL_TIME ( 10, 58, 17.00000000000000000, #15 ) ;
#151 = VERTEX_POINT ( 'NONE', #148 ) ;
#152 = FACE_OUTER_BOUND ( 'NONE', #112, .T. ) ;
#153 = CIRCLE ( 'NONE', #7, 25.00000000000000000 ) ;
#154 = DATE_TIME_ROLE ( 'classification_date' ) ;
#155 = ORIENTED_EDGE ( 'NONE', *, *, #166, .F. ) ;
#156 = CARTESIAN_POINT ( 'NONE',  ( 25.00000000000000000, 3.061616997868383043E-15, 0.0000000000000000000 ) ) ;
#157 = CYLINDRICAL_SURFACE ( 'NONE', #142, 25.00000000000000000 ) ;
#158 = PERSON_AND_ORGANIZATION_ROLE ( 'creator' ) ;
#159 = DATE_AND_TIME ( #29, #167 ) ;
#160 = VERTEX_POINT ( 'NONE', #156 ) ;
#161 = CARTESIAN_POINT ( 'NONE',  ( 0.0000000000000000000, 0.0000000000000000000, 0.0000000000000000000 ) ) ;
#162 = DIRECTION ( 'NONE',  ( 0.0000000000000000000, 0.0000000000000000000, 1.000000000000000000 ) ) ;
#163 = CALENDAR_DATE ( 2019, 22, 4 ) ;
#164 = DESIGN_CONTEXT ( 'detailed design', #42, 'design' ) ;
#165 = APPLICATION_PROTOCOL_DEFINITION ( 'international standard', 'config_control_design', 1994, #26 ) ;
#166 = EDGE_CURVE ( 'NONE', #2, #160, #16, .T. ) ;
#167 = LOCAL_TIME ( 10, 58, 17.00000000000000000, #24 ) ;
#168 = DIRECTION ( 'NONE',  ( 0.0000000000000000000, 0.0000000000000000000, 1.000000000000000000 ) ) ;
#169 = COORDINATED_UNIVERSAL_TIME_OFFSET ( 5, 0, .BEHIND. ) ;
#170 = ORIENTED_EDGE ( 'NONE', *, *, #120, .T. ) ;
#171 = EDGE_CURVE ( 'NONE', #175, #160, #13, .T. ) ;
#172 = ORIENTED_EDGE ( 'NONE', *, *, #120, .F. ) ;
#173 = DIRECTION ( 'NONE',  ( 1.000000000000000000, 0.0000000000000000000, -0.0000000000000000000 ) ) ;
#174 = PERSON_AND_ORGANIZATION ( #17, #51 ) ;
#175 = VERTEX_POINT ( 'NONE', #52 ) ;
ENDSEC;
END-ISO-10303-21;
