ISO-10303-21;
HEADER;
FILE_DESCRIPTION (( 'STEP AP203' ),
    '1' );
FILE_NAME ('Web Model 47121.STEP',
    '2017-02-01T19:11:48',
    ( '' ),
    ( '' ),
    'SwSTEP 2.0',
    'SolidWorks 2016',
    '' );
FILE_SCHEMA (( 'CONFIG_CONTROL_DESIGN' ));
ENDSEC;

DATA;
#1 = ORIENTED_EDGE ( 'NONE', *, *, #298, .T. ) ;
#2 = COORDINATED_UNIVERSAL_TIME_OFFSET ( 5, 0, .BEHIND. ) ;
#3 = CARTESIAN_POINT ( 'NONE',  ( 0.0000000000000000000, 0.0000000000000000000, 0.0000000000000000000 ) ) ;
#4 = CARTESIAN_POINT ( 'NONE',  ( 5.000000000000000000, -7.071067811865514600, 8.090982689301452500E-017 ) ) ;
#5 = ADVANCED_FACE ( 'NONE', ( #248 ), #163, .F. ) ;
#6 = AXIS2_PLACEMENT_3D ( 'NONE', #228, #153, #256 ) ;
#7 = ORIENTED_EDGE ( 'NONE', *, *, #290, .F. ) ;
#8 = VERTEX_POINT ( 'NONE', #111 ) ;
#9 = CARTESIAN_POINT ( 'NONE',  ( -5.000000000000000000, 7.071067811865514600, 7.850462293418919000E-016 ) ) ;
#10 = PRODUCT_DEFINITION ( 'UNKNOWN', '', #53, #219 ) ;
#11 = DIRECTION ( 'NONE',  ( -6.162975822039156100E-033, -4.978996250518985300E-017, 1.000000000000000000 ) ) ;
#12 = LOCAL_TIME ( 14, 11, 48.00000000000000000, #2 ) ;
#13 = CARTESIAN_POINT ( 'NONE',  ( 5.000000000000000000, 7.071067811865514600, 7.850462293418919000E-016 ) ) ;
#14 = CARTESIAN_POINT ( 'NONE',  ( -5.000000000000000000, 3.049406957806783000E-016, -7.071067811865434600 ) ) ;
#15 = PLANE ( 'NONE',  #119 ) ;
#16 = DIRECTION ( 'NONE',  ( -6.162975822039154700E-033, -1.000000000000000000, -1.110223024625156800E-016 ) ) ;
#17 = CALENDAR_DATE ( 2017, 1, 2 ) ;
#18 = PRODUCT_RELATED_PRODUCT_CATEGORY ( 'detail', '', ( #149 ) ) ;
#19 = ORIENTED_EDGE ( 'NONE', *, *, #21, .F. ) ;
#20 = VERTEX_POINT ( 'NONE', #135 ) ;
#21 = EDGE_CURVE ( 'NONE', #131, #27, #148, .T. ) ;
#22 = DATE_AND_TIME ( #169, #89 ) ;
#23 = VECTOR ( 'NONE', #144, 1000.000000000000000 ) ;
#24 = PERSON ( 'UNSPECIFIED', 'UNSPECIFIED', 'UNSPECIFIED', ('UNSPECIFIED'), ('UNSPECIFIED'), ('UNSPECIFIED') ) ;
#25 = ORIENTED_EDGE ( 'NONE', *, *, #210, .F. ) ;
#26 = APPLICATION_CONTEXT ( 'configuration controlled 3d designs of mechanical parts and assemblies' ) ;
#27 = VERTEX_POINT ( 'NONE', #310 ) ;
#28 = DIRECTION ( 'NONE',  ( 0.0000000000000000000, 0.0000000000000000000, 1.000000000000000000 ) ) ;
#29 = AXIS2_PLACEMENT_3D ( 'NONE', #238, #115, #45 ) ;
#30 = LINE ( 'NONE', #226, #23 ) ;
#31 = VECTOR ( 'NONE', #102, 1000.000000000000000 ) ;
#32 = COORDINATED_UNIVERSAL_TIME_OFFSET ( 5, 0, .BEHIND. ) ;
#33 = CARTESIAN_POINT ( 'NONE',  ( -5.000000000000000000, -3.049406957806785000E-016, 7.071067811865434600 ) ) ;
#34 = ORIENTED_EDGE ( 'NONE', *, *, #54, .T. ) ;
#35 = PLANE ( 'NONE',  #94 ) ;
#36 = DIRECTION ( 'NONE',  ( 0.0000000000000000000, -1.000000000000000000, -4.978996250518984000E-017 ) ) ;
#37 = ORIENTED_EDGE ( 'NONE', *, *, #54, .F. ) ;
#38 = DIRECTION ( 'NONE',  ( 0.0000000000000000000, 4.978996250518982800E-017, -1.000000000000000000 ) ) ;
#39 = EDGE_CURVE ( 'NONE', #86, #166, #184, .T. ) ;
#40 = CARTESIAN_POINT ( 'NONE',  ( 5.000000000000000000, -7.071067811865514600, -7.850462293418920900E-016 ) ) ;
#41 = VECTOR ( 'NONE', #62, 1000.000000000000000 ) ;
#42 = CARTESIAN_POINT ( 'NONE',  ( 5.000000000000000000, 3.049406957806783000E-016, -7.071067811865434600 ) ) ;
#43 = DIRECTION ( 'NONE',  ( -1.000000000000000000, 6.162975822039156100E-033, -6.162975822039154700E-033 ) ) ;
#44 = EDGE_CURVE ( 'NONE', #87, #75, #180, .T. ) ;
#45 = DIRECTION ( 'NONE',  ( 0.0000000000000000000, -0.7071067811865514600, -0.7071067811865435800 ) ) ;
#46 = EDGE_LOOP ( 'NONE', ( #261, #49, #167, #122 ) ) ;
#47 = ORIENTED_EDGE ( 'NONE', *, *, #239, .F. ) ;
#48 = CLOSED_SHELL ( 'NONE', ( #105, #5, #250, #203, #273 ) ) ;
#49 = ORIENTED_EDGE ( 'NONE', *, *, #39, .F. ) ;
#50 = APPROVAL_STATUS ( 'not_yet_approved' ) ;
#51 = EDGE_CURVE ( 'NONE', #20, #215, #202, .T. ) ;
#52 = MECHANICAL_CONTEXT ( 'NONE', #26, 'mechanical' ) ;
#53 = PRODUCT_DEFINITION_FORMATION_WITH_SPECIFIED_SOURCE ( 'ANY', '', #149, .NOT_KNOWN. ) ;
#54 = EDGE_CURVE ( 'NONE', #20, #131, #170, .T. ) ;
#55 = CALENDAR_DATE ( 2017, 1, 2 ) ;
#56 = ORIENTED_EDGE ( 'NONE', *, *, #79, .F. ) ;
#57 = ORIENTED_EDGE ( 'NONE', *, *, #210, .T. ) ;
#58 = DATE_AND_TIME ( #17, #173 ) ;
#59 = CARTESIAN_POINT ( 'NONE',  ( -5.000000000000000000, 7.071067811865514600, 7.850462293418919000E-016 ) ) ;
#60 = EDGE_LOOP ( 'NONE', ( #77, #255, #213 ) ) ;
#61 = CC_DESIGN_SECURITY_CLASSIFICATION ( #181, ( #53 ) ) ;
#62 = DIRECTION ( 'NONE',  ( -1.000000000000000000, 6.162975822039156100E-033, -6.162975822039154700E-033 ) ) ;
#63 = CC_DESIGN_APPROVAL ( #259, ( #10 ) ) ;
#64 = CALENDAR_DATE ( 2017, 1, 2 ) ;
#65 = EDGE_CURVE ( 'NONE', #291, #222, #151, .T. ) ;
#66 = VECTOR ( 'NONE', #276, 1000.000000000000000 ) ;
#67 = DIRECTION ( 'NONE',  ( 0.0000000000000000000, 0.7071067811865514600, 0.7071067811865435800 ) ) ;
#68 = ORIENTED_EDGE ( 'NONE', *, *, #85, .F. ) ;
#69 = CC_DESIGN_PERSON_AND_ORGANIZATION_ASSIGNMENT ( #136, #195, ( #53 ) ) ;
#70 = COORDINATED_UNIVERSAL_TIME_OFFSET ( 5, 0, .BEHIND. ) ;
#71 = AXIS2_PLACEMENT_3D ( 'NONE', #162, #11, #114 ) ;
#72 = APPROVAL_ROLE ( '' ) ;
#73 = ORGANIZATION ( 'UNSPECIFIED', 'UNSPECIFIED', '' ) ;
#74 = PERSON_AND_ORGANIZATION_ROLE ( 'classification_officer' ) ;
#75 = VERTEX_POINT ( 'NONE', #9 ) ;
#76 = APPLICATION_PROTOCOL_DEFINITION ( 'international standard', 'config_control_design', 1994, #150 ) ;
#77 = ORIENTED_EDGE ( 'NONE', *, *, #140, .T. ) ;
#78 = ADVANCED_BREP_SHAPE_REPRESENTATION ( 'Web Model 47121', ( #242, #211, #308 ), #293 ) ;
#79 = EDGE_CURVE ( 'NONE', #189, #8, #116, .T. ) ;
#80 = CARTESIAN_POINT ( 'NONE',  ( -5.000000000000000000, -7.071067811865514600, -7.850462293418920900E-016 ) ) ;
#81 = APPROVAL_PERSON_ORGANIZATION ( #297, #259, #72 ) ;
#82 = EDGE_LOOP ( 'NONE', ( #246, #100, #141 ) ) ;
#83 = CARTESIAN_POINT ( 'NONE',  ( 5.000000000000000000, 7.071067811865514600, -8.090982689301432800E-017 ) ) ;
#84 = ADVANCED_FACE ( 'NONE', ( #295 ), #113, .F. ) ;
#85 = EDGE_CURVE ( 'NONE', #166, #75, #172, .T. ) ;
#86 = VERTEX_POINT ( 'NONE', #237 ) ;
#87 = VERTEX_POINT ( 'NONE', #289 ) ;
#88 = CARTESIAN_POINT ( 'NONE',  ( -5.000000000000000000, -7.071067811865514600, -7.850462293418920900E-016 ) ) ;
#89 = LOCAL_TIME ( 14, 11, 48.00000000000000000, #32 ) ;
#90 = CLOSED_SHELL ( 'NONE', ( #254, #84, #275, #108, #205 ) ) ;
#91 = CARTESIAN_POINT ( 'NONE',  ( 5.000000000000000000, 7.071067811865514600, -8.090982689301432800E-017 ) ) ;
#92 = AXIS2_PLACEMENT_3D ( 'NONE', #13, #38, #232 ) ;
#93 = DIRECTION ( 'NONE',  ( -8.715763992105247500E-033, -0.7071067811865515700, 0.7071067811865435800 ) ) ;
#94 = AXIS2_PLACEMENT_3D ( 'NONE', #83, #206, #299 ) ;
#95 = CARTESIAN_POINT ( 'NONE',  ( 5.000000000000000000, 3.049406957806783000E-016, -7.071067811865434600 ) ) ;
#96 = EDGE_LOOP ( 'NONE', ( #1, #157, #25, #197 ) ) ;
#97 = FACE_OUTER_BOUND ( 'NONE', #82, .T. ) ;
#98 = DIRECTION ( 'NONE',  ( 0.0000000000000000000, 0.7071067811865514600, 0.7071067811865435800 ) ) ;
#99 = CARTESIAN_POINT ( 'NONE',  ( 5.000000000000000000, -3.049406957806785000E-016, 7.071067811865434600 ) ) ;
#100 = ORIENTED_EDGE ( 'NONE', *, *, #307, .F. ) ;
#101 = SECURITY_CLASSIFICATION_LEVEL ( 'unclassified' ) ;
#102 = DIRECTION ( 'NONE',  ( -8.715763992105247500E-033, -0.7071067811865515700, 0.7071067811865435800 ) ) ;
#103 =( LENGTH_UNIT ( ) NAMED_UNIT ( * ) SI_UNIT ( .MILLI., .METRE. ) );
#104 = ORIENTED_EDGE ( 'NONE', *, *, #239, .T. ) ;
#105 = ADVANCED_FACE ( 'NONE', ( #158 ), #262, .F. ) ;
#106 = VECTOR ( 'NONE', #186, 1000.000000000000000 ) ;
#107 = DIRECTION ( 'NONE',  ( 6.162975822039156100E-033, 1.000000000000000000, 4.978996250518985300E-017 ) ) ;
#108 = ADVANCED_FACE ( 'NONE', ( #155 ), #15, .F. ) ;
#109 = CARTESIAN_POINT ( 'NONE',  ( -5.000000000000000000, -7.071067811865514600, 8.090982689301452500E-017 ) ) ;
#110 = EDGE_CURVE ( 'NONE', #189, #86, #233, .T. ) ;
#111 = CARTESIAN_POINT ( 'NONE',  ( -5.000000000000000000, -7.071067811865514600, 8.090982689301452500E-017 ) ) ;
#112 = VECTOR ( 'NONE', #281, 1000.000000000000000 ) ;
#113 = PLANE ( 'NONE',  #71 ) ;
#114 = DIRECTION ( 'NONE',  ( -6.162975822039154700E-033, -1.000000000000000000, -4.978996250518985300E-017 ) ) ;
#115 = DIRECTION ( 'NONE',  ( 0.0000000000000000000, -0.7071067811865435800, 0.7071067811865514600 ) ) ;
#116 = LINE ( 'NONE', #280, #301 ) ;
#117 = DIRECTION ( 'NONE',  ( -1.000000000000000000, 6.162975822039156100E-033, -6.162975822039154700E-033 ) ) ;
#118 = EDGE_LOOP ( 'NONE', ( #134, #19, #37, #200 ) ) ;
#119 = AXIS2_PLACEMENT_3D ( 'NONE', #164, #43, #287 ) ;
#120 =( NAMED_UNIT ( * ) PLANE_ANGLE_UNIT ( ) SI_UNIT ( $, .RADIAN. ) );
#121 = PERSON_AND_ORGANIZATION ( #24, #73 ) ;
#122 = ORIENTED_EDGE ( 'NONE', *, *, #79, .T. ) ;
#123 = VECTOR ( 'NONE', #36, 1000.000000000000000 ) ;
#124 = ORIENTED_EDGE ( 'NONE', *, *, #140, .F. ) ;
#125 = ORIENTED_EDGE ( 'NONE', *, *, #284, .T. ) ;
#126 = ORIENTED_EDGE ( 'NONE', *, *, #44, .F. ) ;
#127 = DIRECTION ( 'NONE',  ( 0.0000000000000000000, 1.000000000000000000, 1.110223024625156500E-016 ) ) ;
#128 = CARTESIAN_POINT ( 'NONE',  ( 5.000000000000000000, -7.071067811865514600, -7.850462293418920900E-016 ) ) ;
#129 = COORDINATED_UNIVERSAL_TIME_OFFSET ( 5, 0, .BEHIND. ) ;
#130 = PLANE ( 'NONE',  #249 ) ;
#131 = VERTEX_POINT ( 'NONE', #99 ) ;
#132 = CARTESIAN_POINT ( 'NONE',  ( -5.000000000000000000, 7.071067811865514600, -8.090982689301432800E-017 ) ) ;
#133 = DIRECTION ( 'NONE',  ( 0.0000000000000000000, 0.7071067811865435800, 0.7071067811865514600 ) ) ;
#134 = ORIENTED_EDGE ( 'NONE', *, *, #307, .T. ) ;
#135 = CARTESIAN_POINT ( 'NONE',  ( 5.000000000000000000, 7.071067811865514600, -8.090982689301432800E-017 ) ) ;
#136 = PERSON_AND_ORGANIZATION ( #24, #73 ) ;
#137 = CARTESIAN_POINT ( 'NONE',  ( 5.000000000000000000, -3.049406957806785000E-016, 7.071067811865434600 ) ) ;
#138 = ORIENTED_EDGE ( 'NONE', *, *, #85, .T. ) ;
#139 = ORIENTED_EDGE ( 'NONE', *, *, #44, .T. ) ;
#140 = EDGE_CURVE ( 'NONE', #86, #87, #190, .T. ) ;
#141 = ORIENTED_EDGE ( 'NONE', *, *, #298, .F. ) ;
#142 = CARTESIAN_POINT ( 'NONE',  ( 5.000000000000000000, -7.071067811865514600, -7.850462293418920900E-016 ) ) ;
#143 = ORIENTED_EDGE ( 'NONE', *, *, #224, .T. ) ;
#144 = DIRECTION ( 'NONE',  ( -4.926439913641935000E-047, -0.7071067811865514600, -0.7071067811865435800 ) ) ;
#145 = COORDINATED_UNIVERSAL_TIME_OFFSET ( 5, 0, .BEHIND. ) ;
#146 = APPROVAL_STATUS ( 'not_yet_approved' ) ;
#147 = APPROVAL_DATE_TIME ( #58, #207 ) ;
#148 = LINE ( 'NONE', #137, #41 ) ;
#149 = PRODUCT ( 'Web Model 47121', 'Web Model 47121', '', ( #52 ) ) ;
#150 = APPLICATION_CONTEXT ( 'configuration controlled 3d designs of mechanical parts and assemblies' ) ;
#151 = LINE ( 'NONE', #40, #199 ) ;
#152 = PERSON_AND_ORGANIZATION ( #24, #73 ) ;
#153 = DIRECTION ( 'NONE',  ( 8.715763992105246100E-033, 0.7071067811865435800, -0.7071067811865514600 ) ) ;
#154 = VECTOR ( 'NONE', #253, 1000.000000000000000 ) ;
#155 = FACE_OUTER_BOUND ( 'NONE', #174, .T. ) ;
#156 = PRODUCT_DEFINITION_SHAPE ( 'NONE', 'NONE',  #10 ) ;
#157 = ORIENTED_EDGE ( 'NONE', *, *, #51, .F. ) ;
#158 = FACE_OUTER_BOUND ( 'NONE', #303, .T. ) ;
#159 = ORIENTED_EDGE ( 'NONE', *, *, #65, .F. ) ;
#160 = DIRECTION ( 'NONE',  ( -1.000000000000000000, -0.0000000000000000000, 0.0000000000000000000 ) ) ;
#161 = APPROVAL_DATE_TIME ( #306, #300 ) ;
#162 = CARTESIAN_POINT ( 'NONE',  ( 5.000000000000000000, -7.071067811865514600, -7.850462293418920900E-016 ) ) ;
#163 = PLANE ( 'NONE',  #92 ) ;
#164 = CARTESIAN_POINT ( 'NONE',  ( 5.000000000000000000, 9.496772466349238700E-016, 7.071067811865433800 ) ) ;
#165 = DIRECTION ( 'NONE',  ( -1.000000000000000000, 0.0000000000000000000, 0.0000000000000000000 ) ) ;
#166 = VERTEX_POINT ( 'NONE', #14 ) ;
#167 = ORIENTED_EDGE ( 'NONE', *, *, #110, .F. ) ;
#168 = PERSON_AND_ORGANIZATION_ROLE ( 'design_owner' ) ;
#169 = CALENDAR_DATE ( 2017, 1, 2 ) ;
#170 = LINE ( 'NONE', #91, #317 ) ;
#171 = APPROVAL_ROLE ( '' ) ;
#172 = LINE ( 'NONE', #183, #278 ) ;
#173 = LOCAL_TIME ( 14, 11, 48.00000000000000000, #70 ) ;
#174 = EDGE_LOOP ( 'NONE', ( #143, #57, #34 ) ) ;
#175 = CARTESIAN_POINT ( 'NONE',  ( -5.000000000000000000, 7.071067811865514600, -8.090982689301432800E-017 ) ) ;
#176 = DIRECTION ( 'NONE',  ( 0.0000000000000000000, -0.7071067811865514600, 0.7071067811865435800 ) ) ;
#177 = PLANE ( 'NONE',  #236 ) ;
#178 = LINE ( 'NONE', #109, #154 ) ;
#179 = ORIENTED_EDGE ( 'NONE', *, *, #39, .T. ) ;
#180 = LINE ( 'NONE', #214, #265 ) ;
#181 = SECURITY_CLASSIFICATION ( '', '', #101 ) ;
#182 = LINE ( 'NONE', #142, #244 ) ;
#183 = CARTESIAN_POINT ( 'NONE',  ( -5.000000000000000000, 3.049406957806783000E-016, -7.071067811865434600 ) ) ;
#184 = LINE ( 'NONE', #42, #309 ) ;
#185 = LINE ( 'NONE', #59, #123 ) ;
#186 = DIRECTION ( 'NONE',  ( 0.0000000000000000000, 0.7071067811865515700, -0.7071067811865435800 ) ) ;
#187 = DIRECTION ( 'NONE',  ( 6.162975822039156100E-033, 1.000000000000000000, 4.978996250518985300E-017 ) ) ;
#188 = APPROVAL_ROLE ( '' ) ;
#189 = VERTEX_POINT ( 'NONE', #216 ) ;
#190 = LINE ( 'NONE', #95, #271 ) ;
#191 = ORIENTED_EDGE ( 'NONE', *, *, #234, .F. ) ;
#192 = LINE ( 'NONE', #33, #304 ) ;
#193 = PERSON_AND_ORGANIZATION_ROLE ( 'creator' ) ;
#194 = UNCERTAINTY_MEASURE_WITH_UNIT (LENGTH_MEASURE( 1.000000000000000100E-005 ), #103, 'distance_accuracy_value', 'NONE');
#195 = PERSON_AND_ORGANIZATION_ROLE ( 'design_supplier' ) ;
#196 = PERSON_AND_ORGANIZATION ( #24, #73 ) ;
#197 = ORIENTED_EDGE ( 'NONE', *, *, #65, .T. ) ;
#198 = APPLICATION_PROTOCOL_DEFINITION ( 'international standard', 'config_control_design', 1994, #26 ) ;
#199 = VECTOR ( 'NONE', #230, 1000.000000000000000 ) ;
#200 = ORIENTED_EDGE ( 'NONE', *, *, #51, .T. ) ;
#201 = CC_DESIGN_DATE_AND_TIME_ASSIGNMENT ( #22, #245, ( #10 ) ) ;
#202 = LINE ( 'NONE', #305, #112 ) ;
#203 = ADVANCED_FACE ( 'NONE', ( #269 ), #312, .F. ) ;
#204 = PLANE ( 'NONE',  #6 ) ;
#205 = ADVANCED_FACE ( 'NONE', ( #97 ), #313, .T. ) ;
#206 = DIRECTION ( 'NONE',  ( 4.789594360485214600E-047, -0.7071067811865435800, -0.7071067811865514600 ) ) ;
#207 = APPROVAL ( #146, 'UNSPECIFIED' ) ;
#208 = DIRECTION ( 'NONE',  ( -1.000000000000000000, 0.0000000000000000000, 0.0000000000000000000 ) ) ;
#209 = ORIENTED_EDGE ( 'NONE', *, *, #224, .F. ) ;
#210 = EDGE_CURVE ( 'NONE', #291, #20, #182, .T. ) ;
#211 = MANIFOLD_SOLID_BREP ( '10x10 Right Angle Prism Master-2-solid1', #90 ) ;
#212 = CALENDAR_DATE ( 2017, 1, 2 ) ;
#213 = ORIENTED_EDGE ( 'NONE', *, *, #110, .T. ) ;
#214 = CARTESIAN_POINT ( 'NONE',  ( 5.000000000000000000, 7.071067811865514600, 7.850462293418919000E-016 ) ) ;
#215 = VERTEX_POINT ( 'NONE', #132 ) ;
#216 = CARTESIAN_POINT ( 'NONE',  ( 5.000000000000000000, -7.071067811865514600, 8.090982689301452500E-017 ) ) ;
#217 = CARTESIAN_POINT ( 'NONE',  ( 5.000000000000000000, -9.496772466349242700E-016, -7.071067811865433800 ) ) ;
#218 = CC_DESIGN_PERSON_AND_ORGANIZATION_ASSIGNMENT ( #316, #74, ( #181 ) ) ;
#219 = DESIGN_CONTEXT ( 'detailed design', #150, 'design' ) ;
#220 = APPROVAL_STATUS ( 'not_yet_approved' ) ;
#221 = PERSON_AND_ORGANIZATION ( #24, #73 ) ;
#222 = VERTEX_POINT ( 'NONE', #80 ) ;
#223 = CC_DESIGN_APPROVAL ( #300, ( #53 ) ) ;
#224 = EDGE_CURVE ( 'NONE', #131, #291, #30, .T. ) ;
#225 = AXIS2_PLACEMENT_3D ( 'NONE', #263, #117, #16 ) ;
#226 = CARTESIAN_POINT ( 'NONE',  ( 5.000000000000000000, -3.049406957806785000E-016, 7.071067811865434600 ) ) ;
#227 = DATE_AND_TIME ( #212, #252 ) ;
#228 = CARTESIAN_POINT ( 'NONE',  ( 5.000000000000000000, -3.049406957806785000E-016, 7.071067811865434600 ) ) ;
#229 = LINE ( 'NONE', #88, #288 ) ;
#230 = DIRECTION ( 'NONE',  ( -1.000000000000000000, 6.162975822039156100E-033, -6.162975822039154700E-033 ) ) ;
#231 = DATE_AND_TIME ( #64, #12 ) ;
#232 = DIRECTION ( 'NONE',  ( 0.0000000000000000000, 1.000000000000000000, 4.978996250518982800E-017 ) ) ;
#233 = LINE ( 'NONE', #285, #106 ) ;
#234 = EDGE_CURVE ( 'NONE', #87, #189, #283, .T. ) ;
#235 = DIRECTION ( 'NONE',  ( -1.000000000000000000, -0.0000000000000000000, 0.0000000000000000000 ) ) ;
#236 = AXIS2_PLACEMENT_3D ( 'NONE', #274, #208, #127 ) ;
#237 = CARTESIAN_POINT ( 'NONE',  ( 5.000000000000000000, 3.049406957806783000E-016, -7.071067811865434600 ) ) ;
#238 = CARTESIAN_POINT ( 'NONE',  ( 5.000000000000000000, 3.049406957806783000E-016, -7.071067811865434600 ) ) ;
#239 = EDGE_CURVE ( 'NONE', #75, #8, #185, .T. ) ;
#240 = FACE_OUTER_BOUND ( 'NONE', #302, .T. ) ;
#241 = APPROVAL_PERSON_ORGANIZATION ( #121, #300, #171 ) ;
#242 = MANIFOLD_SOLID_BREP ( '10x10 Right Angle Prism Master-1-solid1', #48 ) ;
#243 = PERSON_AND_ORGANIZATION_ROLE ( 'creator' ) ;
#244 = VECTOR ( 'NONE', #187, 1000.000000000000000 ) ;
#245 = DATE_TIME_ROLE ( 'creation_date' ) ;
#246 = ORIENTED_EDGE ( 'NONE', *, *, #284, .F. ) ;
#247 = FACE_OUTER_BOUND ( 'NONE', #296, .T. ) ;
#248 = FACE_OUTER_BOUND ( 'NONE', #266, .T. ) ;
#249 = AXIS2_PLACEMENT_3D ( 'NONE', #4, #133, #176 ) ;
#250 = ADVANCED_FACE ( 'NONE', ( #318 ), #130, .F. ) ;
#251 = DIRECTION ( 'NONE',  ( -4.926439913641935000E-047, -0.7071067811865514600, -0.7071067811865435800 ) ) ;
#252 = LOCAL_TIME ( 14, 11, 48.00000000000000000, #129 ) ;
#253 = DIRECTION ( 'NONE',  ( 0.0000000000000000000, 0.7071067811865515700, -0.7071067811865435800 ) ) ;
#254 = ADVANCED_FACE ( 'NONE', ( #240 ), #204, .F. ) ;
#255 = ORIENTED_EDGE ( 'NONE', *, *, #234, .T. ) ;
#256 = DIRECTION ( 'NONE',  ( 4.926439913641935000E-047, 0.7071067811865514600, 0.7071067811865435800 ) ) ;
#257 = DIRECTION ( 'NONE',  ( -1.000000000000000000, -0.0000000000000000000, 0.0000000000000000000 ) ) ;
#258 = LINE ( 'NONE', #175, #31 ) ;
#259 = APPROVAL ( #50, 'UNSPECIFIED' ) ;
#260 = APPROVAL_DATE_TIME ( #231, #259 ) ;
#261 = ORIENTED_EDGE ( 'NONE', *, *, #290, .T. ) ;
#262 = PLANE ( 'NONE',  #29 ) ;
#263 = CARTESIAN_POINT ( 'NONE',  ( -5.000000000000000000, 9.496772466349238700E-016, 7.071067811865433800 ) ) ;
#264 = APPROVAL_PERSON_ORGANIZATION ( #270, #207, #188 ) ;
#265 = VECTOR ( 'NONE', #257, 1000.000000000000000 ) ;
#266 = EDGE_LOOP ( 'NONE', ( #104, #56, #191, #139 ) ) ;
#267 = FACE_OUTER_BOUND ( 'NONE', #118, .T. ) ;
#268 = DATE_TIME_ROLE ( 'classification_date' ) ;
#269 = FACE_OUTER_BOUND ( 'NONE', #60, .T. ) ;
#270 = PERSON_AND_ORGANIZATION ( #24, #73 ) ;
#271 = VECTOR ( 'NONE', #98, 1000.000000000000000 ) ;
#272 = LOCAL_TIME ( 14, 11, 48.00000000000000000, #145 ) ;
#273 = ADVANCED_FACE ( 'NONE', ( #247 ), #177, .T. ) ;
#274 = CARTESIAN_POINT ( 'NONE',  ( -5.000000000000000000, -9.496772466349242700E-016, -7.071067811865433800 ) ) ;
#275 = ADVANCED_FACE ( 'NONE', ( #267 ), #35, .F. ) ;
#276 = DIRECTION ( 'NONE',  ( 0.0000000000000000000, -1.000000000000000000, -4.978996250518984000E-017 ) ) ;
#277 = CARTESIAN_POINT ( 'NONE',  ( 5.000000000000000000, 7.071067811865514600, 7.850462293418919000E-016 ) ) ;
#278 = VECTOR ( 'NONE', #67, 1000.000000000000000 ) ;
#279 = CC_DESIGN_DATE_AND_TIME_ASSIGNMENT ( #227, #268, ( #181 ) ) ;
#280 = CARTESIAN_POINT ( 'NONE',  ( 5.000000000000000000, -7.071067811865514600, 8.090982689301452500E-017 ) ) ;
#281 = DIRECTION ( 'NONE',  ( -1.000000000000000000, 6.162975822039156100E-033, -6.162975822039154700E-033 ) ) ;
#282 = AXIS2_PLACEMENT_3D ( 'NONE', #217, #165, #314 ) ;
#283 = LINE ( 'NONE', #277, #66 ) ;
#284 = EDGE_CURVE ( 'NONE', #27, #222, #192, .T. ) ;
#285 = CARTESIAN_POINT ( 'NONE',  ( 5.000000000000000000, -7.071067811865514600, 8.090982689301452500E-017 ) ) ;
#286 = CC_DESIGN_PERSON_AND_ORGANIZATION_ASSIGNMENT ( #152, #193, ( #10 ) ) ;
#287 = DIRECTION ( 'NONE',  ( -6.162975822039154700E-033, -1.000000000000000000, -1.110223024625156800E-016 ) ) ;
#288 = VECTOR ( 'NONE', #107, 1000.000000000000000 ) ;
#289 = CARTESIAN_POINT ( 'NONE',  ( 5.000000000000000000, 7.071067811865514600, 7.850462293418919000E-016 ) ) ;
#290 = EDGE_CURVE ( 'NONE', #8, #166, #178, .T. ) ;
#291 = VERTEX_POINT ( 'NONE', #128 ) ;
#292 =( NAMED_UNIT ( * ) SI_UNIT ( $, .STERADIAN. ) SOLID_ANGLE_UNIT ( ) );
#293 =( GEOMETRIC_REPRESENTATION_CONTEXT ( 3 ) GLOBAL_UNCERTAINTY_ASSIGNED_CONTEXT ( ( #194 ) ) GLOBAL_UNIT_ASSIGNED_CONTEXT ( ( #103, #120, #292 ) ) REPRESENTATION_CONTEXT ( 'NONE', 'WORKASPACE' ) );
#294 = DIRECTION ( 'NONE',  ( 1.000000000000000000, 0.0000000000000000000, 0.0000000000000000000 ) ) ;
#295 = FACE_OUTER_BOUND ( 'NONE', #96, .T. ) ;
#296 = EDGE_LOOP ( 'NONE', ( #68, #7, #47 ) ) ;
#297 = PERSON_AND_ORGANIZATION ( #24, #73 ) ;
#298 = EDGE_CURVE ( 'NONE', #222, #215, #229, .T. ) ;
#299 = DIRECTION ( 'NONE',  ( 8.715763992105247500E-033, 0.7071067811865514600, -0.7071067811865435800 ) ) ;
#300 = APPROVAL ( #220, 'UNSPECIFIED' ) ;
#301 = VECTOR ( 'NONE', #160, 1000.000000000000000 ) ;
#302 = EDGE_LOOP ( 'NONE', ( #125, #159, #209, #320 ) ) ;
#303 = EDGE_LOOP ( 'NONE', ( #138, #126, #124, #179 ) ) ;
#304 = VECTOR ( 'NONE', #251, 1000.000000000000000 ) ;
#305 = CARTESIAN_POINT ( 'NONE',  ( 5.000000000000000000, 7.071067811865514600, -8.090982689301432800E-017 ) ) ;
#306 = DATE_AND_TIME ( #55, #272 ) ;
#307 = EDGE_CURVE ( 'NONE', #215, #27, #258, .T. ) ;
#308 = AXIS2_PLACEMENT_3D ( 'NONE', #3, #28, #294 ) ;
#309 = VECTOR ( 'NONE', #235, 1000.000000000000000 ) ;
#310 = CARTESIAN_POINT ( 'NONE',  ( -5.000000000000000000, -3.049406957806785000E-016, 7.071067811865434600 ) ) ;
#311 = SHAPE_DEFINITION_REPRESENTATION ( #156, #78 ) ;
#312 = PLANE ( 'NONE',  #282 ) ;
#313 = PLANE ( 'NONE',  #225 ) ;
#314 = DIRECTION ( 'NONE',  ( 0.0000000000000000000, 1.000000000000000000, 1.110223024625156500E-016 ) ) ;
#315 = CC_DESIGN_PERSON_AND_ORGANIZATION_ASSIGNMENT ( #221, #168, ( #149 ) ) ;
#316 = PERSON_AND_ORGANIZATION ( #24, #73 ) ;
#317 = VECTOR ( 'NONE', #93, 1000.000000000000000 ) ;
#318 = FACE_OUTER_BOUND ( 'NONE', #46, .T. ) ;
#319 = CC_DESIGN_PERSON_AND_ORGANIZATION_ASSIGNMENT ( #196, #243, ( #53 ) ) ;
#320 = ORIENTED_EDGE ( 'NONE', *, *, #21, .T. ) ;
#321 = CC_DESIGN_APPROVAL ( #207, ( #181 ) ) ;
ENDSEC;
END-ISO-10303-21;
