ISO-10303-21;
HEADER;
FILE_DESCRIPTION (( 'STEP AP203' ),
    '1' );
FILE_NAME ('Web Model 47518.STEP',
    '2017-01-31T15:20:42',
    ( '' ),
    ( '' ),
    'SwSTEP 2.0',
    'SolidWorks 2016',
    '' );
FILE_SCHEMA (( 'CONFIG_CONTROL_DESIGN' ));
ENDSEC;

DATA;
#1 = CARTESIAN_POINT ( 'NONE',  ( -7.500000000000000000, 9.184850993605147900E-016, 0.0000000000000000000 ) ) ;
#2 = AXIS2_PLACEMENT_3D ( 'NONE', #106, #121, #38 ) ;
#3 = EDGE_LOOP ( 'NONE', ( #10, #55, #20, #61 ) ) ;
#4 = COORDINATED_UNIVERSAL_TIME_OFFSET ( 5, 0, .BEHIND. ) ;
#5 = FACE_OUTER_BOUND ( 'NONE', #112, .T. ) ;
#6 = PLANE ( 'NONE',  #2 ) ;
#7 = PRODUCT_DEFINITION ( 'UNKNOWN', '', #40, #144 ) ;
#8 = VECTOR ( 'NONE', #151, 1000.000000000000000 ) ;
#9 = APPROVAL_PERSON_ORGANIZATION ( #159, #152, #139 ) ;
#10 = ORIENTED_EDGE ( 'NONE', *, *, #45, .F. ) ;
#11 = PERSON_AND_ORGANIZATION_ROLE ( 'classification_officer' ) ;
#12 = PERSON_AND_ORGANIZATION_ROLE ( 'creator' ) ;
#13 = CARTESIAN_POINT ( 'NONE',  ( 0.0000000000000000000, 0.0000000000000000000, 0.0000000000000000000 ) ) ;
#14 = CC_DESIGN_APPROVAL ( #124, ( #7 ) ) ;
#15 = DIRECTION ( 'NONE',  ( 1.000000000000000000, 0.0000000000000000000, 0.0000000000000000000 ) ) ;
#16 = ORIENTED_EDGE ( 'NONE', *, *, #33, .F. ) ;
#17 = CARTESIAN_POINT ( 'NONE',  ( -7.500000000000000000, 9.184850993605147900E-016, -3.000000000000000000 ) ) ;
#18 = DATE_AND_TIME ( #146, #46 ) ;
#19 = PERSON_AND_ORGANIZATION ( #31, #78 ) ;
#20 = ORIENTED_EDGE ( 'NONE', *, *, #39, .T. ) ;
#21 = APPROVAL_DATE_TIME ( #64, #152 ) ;
#22 = APPROVAL_DATE_TIME ( #135, #89 ) ;
#23 = EDGE_CURVE ( 'NONE', #134, #104, #145, .T. ) ;
#24 = CC_DESIGN_PERSON_AND_ORGANIZATION_ASSIGNMENT ( #107, #83, ( #7 ) ) ;
#25 = CALENDAR_DATE ( 2017, 31, 1 ) ;
#26 = ORIENTED_EDGE ( 'NONE', *, *, #33, .T. ) ;
#27 = DIRECTION ( 'NONE',  ( 0.0000000000000000000, 0.0000000000000000000, 1.000000000000000000 ) ) ;
#28 =( NAMED_UNIT ( * ) PLANE_ANGLE_UNIT ( ) SI_UNIT ( $, .RADIAN. ) );
#29 = PERSON_AND_ORGANIZATION ( #31, #78 ) ;
#30 = CIRCLE ( 'NONE', #111, 7.500000000000000000 ) ;
#31 = PERSON ( 'UNSPECIFIED', 'UNSPECIFIED', 'UNSPECIFIED', ('UNSPECIFIED'), ('UNSPECIFIED'), ('UNSPECIFIED') ) ;
#32 = CARTESIAN_POINT ( 'NONE',  ( 0.0000000000000000000, 0.0000000000000000000, -3.000000000000000000 ) ) ;
#33 = EDGE_CURVE ( 'NONE', #94, #66, #80, .T. ) ;
#34 = ORIENTED_EDGE ( 'NONE', *, *, #23, .F. ) ;
#35 = CARTESIAN_POINT ( 'NONE',  ( 7.500000000000000000, 0.0000000000000000000, -3.000000000000000000 ) ) ;
#36 = ADVANCED_FACE ( 'NONE', ( #157 ), #119, .F. ) ;
#37 = CIRCLE ( 'NONE', #103, 7.500000000000000000 ) ;
#38 = DIRECTION ( 'NONE',  ( 1.000000000000000000, 0.0000000000000000000, -0.0000000000000000000 ) ) ;
#39 = EDGE_CURVE ( 'NONE', #134, #94, #52, .T. ) ;
#40 = PRODUCT_DEFINITION_FORMATION_WITH_SPECIFIED_SOURCE ( 'ANY', '', #44, .NOT_KNOWN. ) ;
#41 = LINE ( 'NONE', #150, #8 ) ;
#42 = APPROVAL_PERSON_ORGANIZATION ( #81, #124, #115 ) ;
#43 =( LENGTH_UNIT ( ) NAMED_UNIT ( * ) SI_UNIT ( .MILLI., .METRE. ) );
#44 = PRODUCT ( 'Web Model 47518', 'Web Model 47518', '', ( #67 ) ) ;
#45 = EDGE_CURVE ( 'NONE', #104, #66, #41, .T. ) ;
#46 = LOCAL_TIME ( 10, 20, 42.00000000000000000, #65 ) ;
#47 = CARTESIAN_POINT ( 'NONE',  ( 0.0000000000000000000, 0.0000000000000000000, 0.0000000000000000000 ) ) ;
#48 = CC_DESIGN_APPROVAL ( #152, ( #40 ) ) ;
#49 = CARTESIAN_POINT ( 'NONE',  ( 7.500000000000000000, 0.0000000000000000000, -3.000000000000000000 ) ) ;
#50 = FACE_OUTER_BOUND ( 'NONE', #3, .T. ) ;
#51 = ADVANCED_BREP_SHAPE_REPRESENTATION ( 'Web Model 47518', ( #86, #108 ), #84 ) ;
#52 = LINE ( 'NONE', #35, #123 ) ;
#53 = AXIS2_PLACEMENT_3D ( 'NONE', #129, #118, #166 ) ;
#54 = LOCAL_TIME ( 10, 20, 42.00000000000000000, #131 ) ;
#55 = ORIENTED_EDGE ( 'NONE', *, *, #82, .T. ) ;
#56 = CARTESIAN_POINT ( 'NONE',  ( 0.0000000000000000000, 0.0000000000000000000, 0.0000000000000000000 ) ) ;
#57 = APPROVAL_ROLE ( '' ) ;
#58 = COORDINATED_UNIVERSAL_TIME_OFFSET ( 5, 0, .BEHIND. ) ;
#59 = SECURITY_CLASSIFICATION ( '', '', #69 ) ;
#60 = DIRECTION ( 'NONE',  ( 0.0000000000000000000, 0.0000000000000000000, 1.000000000000000000 ) ) ;
#61 = ORIENTED_EDGE ( 'NONE', *, *, #154, .F. ) ;
#62 = AXIS2_PLACEMENT_3D ( 'NONE', #175, #174, #141 ) ;
#63 = ORIENTED_EDGE ( 'NONE', *, *, #45, .T. ) ;
#64 = DATE_AND_TIME ( #122, #155 ) ;
#65 = COORDINATED_UNIVERSAL_TIME_OFFSET ( 5, 0, .BEHIND. ) ;
#66 = VERTEX_POINT ( 'NONE', #1 ) ;
#67 = MECHANICAL_CONTEXT ( 'NONE', #100, 'mechanical' ) ;
#68 = CC_DESIGN_PERSON_AND_ORGANIZATION_ASSIGNMENT ( #163, #98, ( #40 ) ) ;
#69 = SECURITY_CLASSIFICATION_LEVEL ( 'unclassified' ) ;
#70 = APPLICATION_PROTOCOL_DEFINITION ( 'international standard', 'config_control_design', 1994, #161 ) ;
#71 = CYLINDRICAL_SURFACE ( 'NONE', #53, 7.500000000000000000 ) ;
#72 = CARTESIAN_POINT ( 'NONE',  ( 0.0000000000000000000, 0.0000000000000000000, -3.000000000000000000 ) ) ;
#73 = AXIS2_PLACEMENT_3D ( 'NONE', #47, #60, #15 ) ;
#74 = DIRECTION ( 'NONE',  ( 0.0000000000000000000, 0.0000000000000000000, 1.000000000000000000 ) ) ;
#75 = ADVANCED_FACE ( 'NONE', ( #50 ), #77, .T. ) ;
#76 = DATE_AND_TIME ( #96, #133 ) ;
#77 = CYLINDRICAL_SURFACE ( 'NONE', #156, 7.500000000000000000 ) ;
#78 = ORGANIZATION ( 'UNSPECIFIED', 'UNSPECIFIED', '' ) ;
#79 = CC_DESIGN_PERSON_AND_ORGANIZATION_ASSIGNMENT ( #29, #12, ( #40 ) ) ;
#80 = CIRCLE ( 'NONE', #73, 7.500000000000000000 ) ;
#81 = PERSON_AND_ORGANIZATION ( #31, #78 ) ;
#82 = EDGE_CURVE ( 'NONE', #104, #134, #37, .T. ) ;
#83 = PERSON_AND_ORGANIZATION_ROLE ( 'creator' ) ;
#84 =( GEOMETRIC_REPRESENTATION_CONTEXT ( 3 ) GLOBAL_UNCERTAINTY_ASSIGNED_CONTEXT ( ( #117 ) ) GLOBAL_UNIT_ASSIGNED_CONTEXT ( ( #43, #28, #126 ) ) REPRESENTATION_CONTEXT ( 'NONE', 'WORKASPACE' ) );
#85 = DIRECTION ( 'NONE',  ( 1.000000000000000000, 0.0000000000000000000, 0.0000000000000000000 ) ) ;
#86 = MANIFOLD_SOLID_BREP ( 'Extrude1', #153 ) ;
#87 = ORIENTED_EDGE ( 'NONE', *, *, #39, .F. ) ;
#88 = ADVANCED_FACE ( 'NONE', ( #143 ), #71, .T. ) ;
#89 = APPROVAL ( #148, 'UNSPECIFIED' ) ;
#90 = LOCAL_TIME ( 10, 20, 42.00000000000000000, #58 ) ;
#91 = CALENDAR_DATE ( 2017, 31, 1 ) ;
#92 = COORDINATED_UNIVERSAL_TIME_OFFSET ( 5, 0, .BEHIND. ) ;
#93 = APPROVAL_PERSON_ORGANIZATION ( #19, #89, #57 ) ;
#94 = VERTEX_POINT ( 'NONE', #132 ) ;
#95 = PERSON_AND_ORGANIZATION ( #31, #78 ) ;
#96 = CALENDAR_DATE ( 2017, 31, 1 ) ;
#97 = DATE_AND_TIME ( #25, #90 ) ;
#98 = PERSON_AND_ORGANIZATION_ROLE ( 'design_supplier' ) ;
#99 = DIRECTION ( 'NONE',  ( 0.0000000000000000000, 0.0000000000000000000, 1.000000000000000000 ) ) ;
#100 = APPLICATION_CONTEXT ( 'configuration controlled 3d designs of mechanical parts and assemblies' ) ;
#101 = DIRECTION ( 'NONE',  ( 1.000000000000000000, 0.0000000000000000000, -0.0000000000000000000 ) ) ;
#102 = AXIS2_PLACEMENT_3D ( 'NONE', #72, #74, #101 ) ;
#103 = AXIS2_PLACEMENT_3D ( 'NONE', #128, #140, #85 ) ;
#104 = VERTEX_POINT ( 'NONE', #17 ) ;
#105 = DIRECTION ( 'NONE',  ( 0.0000000000000000000, 0.0000000000000000000, 1.000000000000000000 ) ) ;
#106 = CARTESIAN_POINT ( 'NONE',  ( 0.0000000000000000000, 0.0000000000000000000, 0.0000000000000000000 ) ) ;
#107 = PERSON_AND_ORGANIZATION ( #31, #78 ) ;
#108 = AXIS2_PLACEMENT_3D ( 'NONE', #56, #99, #149 ) ;
#109 = CC_DESIGN_APPROVAL ( #89, ( #59 ) ) ;
#110 = PRODUCT_DEFINITION_SHAPE ( 'NONE', 'NONE',  #7 ) ;
#111 = AXIS2_PLACEMENT_3D ( 'NONE', #13, #27, #127 ) ;
#112 = EDGE_LOOP ( 'NONE', ( #26, #160 ) ) ;
#113 = DATE_TIME_ROLE ( 'creation_date' ) ;
#114 = DATE_TIME_ROLE ( 'classification_date' ) ;
#115 = APPROVAL_ROLE ( '' ) ;
#116 = CC_DESIGN_PERSON_AND_ORGANIZATION_ASSIGNMENT ( #173, #162, ( #44 ) ) ;
#117 = UNCERTAINTY_MEASURE_WITH_UNIT (LENGTH_MEASURE( 1.000000000000000100E-005 ), #43, 'distance_accuracy_value', 'NONE');
#118 = DIRECTION ( 'NONE',  ( 0.0000000000000000000, 0.0000000000000000000, 1.000000000000000000 ) ) ;
#119 = PLANE ( 'NONE',  #102 ) ;
#120 = ADVANCED_FACE ( 'NONE', ( #5 ), #6, .T. ) ;
#121 = DIRECTION ( 'NONE',  ( 0.0000000000000000000, 0.0000000000000000000, 1.000000000000000000 ) ) ;
#122 = CALENDAR_DATE ( 2017, 31, 1 ) ;
#123 = VECTOR ( 'NONE', #130, 1000.000000000000000 ) ;
#124 = APPROVAL ( #172, 'UNSPECIFIED' ) ;
#125 = EDGE_LOOP ( 'NONE', ( #169, #63, #16, #87 ) ) ;
#126 =( NAMED_UNIT ( * ) SI_UNIT ( $, .STERADIAN. ) SOLID_ANGLE_UNIT ( ) );
#127 = DIRECTION ( 'NONE',  ( 1.000000000000000000, 0.0000000000000000000, 0.0000000000000000000 ) ) ;
#128 = CARTESIAN_POINT ( 'NONE',  ( 0.0000000000000000000, 0.0000000000000000000, -3.000000000000000000 ) ) ;
#129 = CARTESIAN_POINT ( 'NONE',  ( 0.0000000000000000000, 0.0000000000000000000, -3.000000000000000000 ) ) ;
#130 = DIRECTION ( 'NONE',  ( 0.0000000000000000000, 0.0000000000000000000, 1.000000000000000000 ) ) ;
#131 = COORDINATED_UNIVERSAL_TIME_OFFSET ( 5, 0, .BEHIND. ) ;
#132 = CARTESIAN_POINT ( 'NONE',  ( 7.500000000000000000, 0.0000000000000000000, 0.0000000000000000000 ) ) ;
#133 = LOCAL_TIME ( 10, 20, 42.00000000000000000, #4 ) ;
#134 = VERTEX_POINT ( 'NONE', #49 ) ;
#135 = DATE_AND_TIME ( #91, #54 ) ;
#136 = CC_DESIGN_DATE_AND_TIME_ASSIGNMENT ( #97, #114, ( #59 ) ) ;
#137 = ORIENTED_EDGE ( 'NONE', *, *, #82, .F. ) ;
#138 = CC_DESIGN_DATE_AND_TIME_ASSIGNMENT ( #18, #113, ( #7 ) ) ;
#139 = APPROVAL_ROLE ( '' ) ;
#140 = DIRECTION ( 'NONE',  ( 0.0000000000000000000, 0.0000000000000000000, 1.000000000000000000 ) ) ;
#141 = DIRECTION ( 'NONE',  ( 1.000000000000000000, 0.0000000000000000000, 0.0000000000000000000 ) ) ;
#142 = PRODUCT_RELATED_PRODUCT_CATEGORY ( 'detail', '', ( #44 ) ) ;
#143 = FACE_OUTER_BOUND ( 'NONE', #125, .T. ) ;
#144 = DESIGN_CONTEXT ( 'detailed design', #161, 'design' ) ;
#145 = CIRCLE ( 'NONE', #62, 7.500000000000000000 ) ;
#146 = CALENDAR_DATE ( 2017, 31, 1 ) ;
#147 = APPLICATION_PROTOCOL_DEFINITION ( 'international standard', 'config_control_design', 1994, #100 ) ;
#148 = APPROVAL_STATUS ( 'not_yet_approved' ) ;
#149 = DIRECTION ( 'NONE',  ( 1.000000000000000000, 0.0000000000000000000, 0.0000000000000000000 ) ) ;
#150 = CARTESIAN_POINT ( 'NONE',  ( -7.500000000000000000, 9.184850993605147900E-016, -3.000000000000000000 ) ) ;
#151 = DIRECTION ( 'NONE',  ( 0.0000000000000000000, 0.0000000000000000000, 1.000000000000000000 ) ) ;
#152 = APPROVAL ( #171, 'UNSPECIFIED' ) ;
#153 = CLOSED_SHELL ( 'NONE', ( #88, #75, #36, #120 ) ) ;
#154 = EDGE_CURVE ( 'NONE', #66, #94, #30, .T. ) ;
#155 = LOCAL_TIME ( 10, 20, 42.00000000000000000, #92 ) ;
#156 = AXIS2_PLACEMENT_3D ( 'NONE', #32, #105, #165 ) ;
#157 = FACE_OUTER_BOUND ( 'NONE', #167, .T. ) ;
#158 = CC_DESIGN_PERSON_AND_ORGANIZATION_ASSIGNMENT ( #95, #11, ( #59 ) ) ;
#159 = PERSON_AND_ORGANIZATION ( #31, #78 ) ;
#160 = ORIENTED_EDGE ( 'NONE', *, *, #154, .T. ) ;
#161 = APPLICATION_CONTEXT ( 'configuration controlled 3d designs of mechanical parts and assemblies' ) ;
#162 = PERSON_AND_ORGANIZATION_ROLE ( 'design_owner' ) ;
#163 = PERSON_AND_ORGANIZATION ( #31, #78 ) ;
#164 = SHAPE_DEFINITION_REPRESENTATION ( #110, #51 ) ;
#165 = DIRECTION ( 'NONE',  ( 1.000000000000000000, 0.0000000000000000000, 0.0000000000000000000 ) ) ;
#166 = DIRECTION ( 'NONE',  ( 1.000000000000000000, 0.0000000000000000000, 0.0000000000000000000 ) ) ;
#167 = EDGE_LOOP ( 'NONE', ( #34, #137 ) ) ;
#168 = CC_DESIGN_SECURITY_CLASSIFICATION ( #59, ( #40 ) ) ;
#169 = ORIENTED_EDGE ( 'NONE', *, *, #23, .T. ) ;
#170 = APPROVAL_DATE_TIME ( #76, #124 ) ;
#171 = APPROVAL_STATUS ( 'not_yet_approved' ) ;
#172 = APPROVAL_STATUS ( 'not_yet_approved' ) ;
#173 = PERSON_AND_ORGANIZATION ( #31, #78 ) ;
#174 = DIRECTION ( 'NONE',  ( 0.0000000000000000000, 0.0000000000000000000, 1.000000000000000000 ) ) ;
#175 = CARTESIAN_POINT ( 'NONE',  ( 0.0000000000000000000, 0.0000000000000000000, -3.000000000000000000 ) ) ;
ENDSEC;
END-ISO-10303-21;
