ISO-10303-21;
HEADER;
FILE_DESCRIPTION (( 'STEP AP203' ),
    '1' );
FILE_NAME ('Web Model 17563_17563.step',
    '2021-06-03T18:53:05',
    ( '' ),
    ( '' ),
    'SwSTEP 2.0',
    'SolidWorks 2018',
    '' );
FILE_SCHEMA (( 'CONFIG_CONTROL_DESIGN' ));
ENDSEC;

DATA;
#1 = LOCAL_TIME ( 14, 53, 5.000000000000000000, #9 ) ;
#2 = APPROVAL_DATE_TIME ( #163, #147 ) ;
#3 = CC_DESIGN_PERSON_AND_ORGANIZATION_ASSIGNMENT ( #101, #24, ( #159 ) ) ;
#4 = AXIS2_PLACEMENT_3D ( 'NONE', #21, #116, #55 ) ;
#5 = DIRECTION ( 'NONE',  ( 1.000000000000000000, 0.000000000000000000, 0.000000000000000000 ) ) ;
#6 = CC_DESIGN_DATE_AND_TIME_ASSIGNMENT ( #130, #93, ( #159 ) ) ;
#7 = DIRECTION ( 'NONE',  ( 0.000000000000000000, 0.000000000000000000, 1.000000000000000000 ) ) ;
#8 = ORIENTED_EDGE ( 'NONE', *, *, #90, .T. ) ;
#9 = COORDINATED_UNIVERSAL_TIME_OFFSET ( 5, 0, .BEHIND. ) ;
#10 = PLANE ( 'NONE',  #140 ) ;
#11 = APPROVAL_ROLE ( '' ) ;
#12 = APPROVAL_ROLE ( '' ) ;
#13 = MANIFOLD_SOLID_BREP ( 'Boss-Extrude1', #175 ) ;
#14 = PRODUCT_DEFINITION_SHAPE ( 'NONE', 'NONE',  #54 ) ;
#15 = AXIS2_PLACEMENT_3D ( 'NONE', #65, #7, #5 ) ;
#16 = EDGE_LOOP ( 'NONE', ( #63, #146, #128, #168 ) ) ;
#17 = ORGANIZATION ( 'UNSPECIFIED', 'UNSPECIFIED', '' ) ;
#18 = CC_DESIGN_PERSON_AND_ORGANIZATION_ASSIGNMENT ( #40, #72, ( #54 ) ) ;
#19 = CARTESIAN_POINT ( 'NONE',  ( -2.952755904999996517, 0.000000000000000000, 0.000000000000000000 ) ) ;
#20 = CALENDAR_DATE ( 2021, 3, 6 ) ;
#21 = CARTESIAN_POINT ( 'NONE',  ( 0.000000000000000000, 0.000000000000000000, 0.000000000000000000 ) ) ;
#22 = ADVANCED_FACE ( 'NONE', ( #166 ), #48, .T. ) ;
#23 = ORIENTED_EDGE ( 'NONE', *, *, #155, .F. ) ;
#24 = PERSON_AND_ORGANIZATION_ROLE ( 'classification_officer' ) ;
#25 = DIRECTION ( 'NONE',  ( 1.000000000000000000, 0.000000000000000000, 0.000000000000000000 ) ) ;
#26 = APPLICATION_PROTOCOL_DEFINITION ( 'international standard', 'config_control_design', 1994, #75 ) ;
#27 = FACE_OUTER_BOUND ( 'NONE', #30, .T. ) ;
#28 = DATE_AND_TIME ( #97, #122 ) ;
#29 = EDGE_CURVE ( 'NONE', #170, #131, #69, .T. ) ;
#30 = EDGE_LOOP ( 'NONE', ( #23, #151 ) ) ;
#31 = ADVANCED_BREP_SHAPE_REPRESENTATION ( 'Web Model 17563_17563', ( #13, #59 ), #34 ) ;
#32 =( LENGTH_UNIT ( ) NAMED_UNIT ( * ) SI_UNIT ( $, .METRE. ) );
#33 = DIRECTION ( 'NONE',  ( 1.000000000000000000, 0.000000000000000000, 0.000000000000000000 ) ) ;
#34 =( GEOMETRIC_REPRESENTATION_CONTEXT ( 3 ) GLOBAL_UNCERTAINTY_ASSIGNED_CONTEXT ( ( #36 ) ) GLOBAL_UNIT_ASSIGNED_CONTEXT ( ( #106, #44, #141 ) ) REPRESENTATION_CONTEXT ( 'NONE', 'WORKASPACE' ) );
#35 = APPROVAL_STATUS ( 'not_yet_approved' ) ;
#36 = UNCERTAINTY_MEASURE_WITH_UNIT (LENGTH_MEASURE( 1.000000000000000082E-05 ), #106, 'distance_accuracy_value', 'NONE');
#37 = APPROVAL_PERSON_ORGANIZATION ( #52, #82, #11 ) ;
#38 = CC_DESIGN_PERSON_AND_ORGANIZATION_ASSIGNMENT ( #139, #91, ( #94 ) ) ;
#39 = CARTESIAN_POINT ( 'NONE',  ( 0.000000000000000000, 0.000000000000000000, 0.000000000000000000 ) ) ;
#40 = PERSON_AND_ORGANIZATION ( #102, #17 ) ;
#41 = CARTESIAN_POINT ( 'NONE',  ( 0.000000000000000000, 0.000000000000000000, 0.3149606299212598381 ) ) ;
#42 = ADVANCED_FACE ( 'NONE', ( #43 ), #96, .T. ) ;
#43 = FACE_OUTER_BOUND ( 'NONE', #123, .T. ) ;
#44 =( NAMED_UNIT ( * ) PLANE_ANGLE_UNIT ( ) SI_UNIT ( $, .RADIAN. ) );
#45 = SHAPE_DEFINITION_REPRESENTATION ( #14, #31 ) ;
#46 = PRODUCT_RELATED_PRODUCT_CATEGORY ( 'detail', '', ( #113 ) ) ;
#47 = COORDINATED_UNIVERSAL_TIME_OFFSET ( 5, 0, .BEHIND. ) ;
#48 = CYLINDRICAL_SURFACE ( 'NONE', #60, 2.952755904999996517 ) ;
#49 = EDGE_CURVE ( 'NONE', #138, #170, #51, .T. ) ;
#50 = DIRECTION ( 'NONE',  ( 1.000000000000000000, 0.000000000000000000, 0.000000000000000000 ) ) ;
#51 = CIRCLE ( 'NONE', #132, 2.952755904999996517 ) ;
#52 = PERSON_AND_ORGANIZATION ( #102, #17 ) ;
#53 = CARTESIAN_POINT ( 'NONE',  ( 2.952755904999996517, 3.616083067721691530E-16, 0.3149606299212598381 ) ) ;
#54 = PRODUCT_DEFINITION ( 'UNKNOWN', '', #94, #89 ) ;
#55 = DIRECTION ( 'NONE',  ( 1.000000000000000000, 0.000000000000000000, -0.000000000000000000 ) ) ;
#56 = CARTESIAN_POINT ( 'NONE',  ( 0.000000000000000000, 0.000000000000000000, 0.3149606299212598381 ) ) ;
#57 = PERSON_AND_ORGANIZATION_ROLE ( 'creator' ) ;
#58 = APPROVAL_PERSON_ORGANIZATION ( #103, #147, #12 ) ;
#59 = AXIS2_PLACEMENT_3D ( 'NONE', #104, #143, #25 ) ;
#60 = AXIS2_PLACEMENT_3D ( 'NONE', #68, #154, #70 ) ;
#61 = APPROVAL_DATE_TIME ( #28, #82 ) ;
#62 = CC_DESIGN_APPROVAL ( #147, ( #159 ) ) ;
#63 = ORIENTED_EDGE ( 'NONE', *, *, #99, .F. ) ;
#64 = VECTOR ( 'NONE', #171, 39.37007874015748143 ) ;
#65 = CARTESIAN_POINT ( 'NONE',  ( 0.000000000000000000, 0.000000000000000000, 0.3149606299212598381 ) ) ;
#66 = APPROVAL_PERSON_ORGANIZATION ( #150, #164, #158 ) ;
#67 = CARTESIAN_POINT ( 'NONE',  ( -2.952755904999996517, 0.000000000000000000, 0.3149606299212598381 ) ) ;
#68 = CARTESIAN_POINT ( 'NONE',  ( 0.000000000000000000, 0.000000000000000000, 0.3149606299212598381 ) ) ;
#69 = LINE ( 'NONE', #172, #79 ) ;
#70 = DIRECTION ( 'NONE',  ( -1.000000000000000000, 0.000000000000000000, 0.000000000000000000 ) ) ;
#71 = CALENDAR_DATE ( 2021, 3, 6 ) ;
#72 = PERSON_AND_ORGANIZATION_ROLE ( 'creator' ) ;
#73 = PERSON_AND_ORGANIZATION_ROLE ( 'design_owner' ) ;
#74 = LOCAL_TIME ( 14, 53, 5.000000000000000000, #157 ) ;
#75 = APPLICATION_CONTEXT ( 'configuration controlled 3d designs of mechanical parts and assemblies' ) ;
#76 = CC_DESIGN_DATE_AND_TIME_ASSIGNMENT ( #80, #176, ( #54 ) ) ;
#77 = ORIENTED_EDGE ( 'NONE', *, *, #145, .T. ) ;
#78 = LENGTH_MEASURE_WITH_UNIT ( LENGTH_MEASURE( 0.02539999999999999897 ), #32 );
#79 = VECTOR ( 'NONE', #133, 39.37007874015748143 ) ;
#80 = DATE_AND_TIME ( #124, #117 ) ;
#81 = APPROVAL_DATE_TIME ( #152, #164 ) ;
#82 = APPROVAL ( #35, 'UNSPECIFIED' ) ;
#83 = VERTEX_POINT ( 'NONE', #135 ) ;
#84 = DIRECTION ( 'NONE',  ( -1.000000000000000000, 0.000000000000000000, 0.000000000000000000 ) ) ;
#85 = CARTESIAN_POINT ( 'NONE',  ( 0.000000000000000000, 0.000000000000000000, 0.3149606299212598381 ) ) ;
#86 = CC_DESIGN_PERSON_AND_ORGANIZATION_ASSIGNMENT ( #178, #57, ( #94 ) ) ;
#87 = CC_DESIGN_SECURITY_CLASSIFICATION ( #159, ( #94 ) ) ;
#88 = ADVANCED_FACE ( 'NONE', ( #100 ), #10, .T. ) ;
#89 = DESIGN_CONTEXT ( 'detailed design', #75, 'design' ) ;
#90 = EDGE_CURVE ( 'NONE', #170, #138, #121, .T. ) ;
#91 = PERSON_AND_ORGANIZATION_ROLE ( 'design_supplier' ) ;
#92 = ORIENTED_EDGE ( 'NONE', *, *, #29, .F. ) ;
#93 = DATE_TIME_ROLE ( 'classification_date' ) ;
#94 = PRODUCT_DEFINITION_FORMATION_WITH_SPECIFIED_SOURCE ( 'ANY', '', #113, .NOT_KNOWN. ) ;
#95 = APPROVAL_STATUS ( 'not_yet_approved' ) ;
#96 = CYLINDRICAL_SURFACE ( 'NONE', #129, 2.952755904999996517 ) ;
#97 = CALENDAR_DATE ( 2021, 3, 6 ) ;
#98 = EDGE_LOOP ( 'NONE', ( #8, #115 ) ) ;
#99 = EDGE_CURVE ( 'NONE', #138, #83, #162, .T. ) ;
#100 = FACE_OUTER_BOUND ( 'NONE', #98, .T. ) ;
#101 = PERSON_AND_ORGANIZATION ( #102, #17 ) ;
#102 = PERSON ( 'UNSPECIFIED', 'UNSPECIFIED', 'UNSPECIFIED', ('UNSPECIFIED'), ('UNSPECIFIED'), ('UNSPECIFIED') ) ;
#103 = PERSON_AND_ORGANIZATION ( #102, #17 ) ;
#104 = CARTESIAN_POINT ( 'NONE',  ( 0.000000000000000000, 0.000000000000000000, 0.000000000000000000 ) ) ;
#105 = PLANE ( 'NONE',  #4 ) ;
#106 =( CONVERSION_BASED_UNIT ( 'INCH', #78 ) LENGTH_UNIT ( ) NAMED_UNIT ( #142 ) );
#107 = APPLICATION_CONTEXT ( 'configuration controlled 3d designs of mechanical parts and assemblies' ) ;
#108 = COORDINATED_UNIVERSAL_TIME_OFFSET ( 5, 0, .BEHIND. ) ;
#109 = AXIS2_PLACEMENT_3D ( 'NONE', #39, #173, #33 ) ;
#110 = CIRCLE ( 'NONE', #165, 2.952755904999996517 ) ;
#111 = CALENDAR_DATE ( 2021, 3, 6 ) ;
#112 = DIRECTION ( 'NONE',  ( 1.000000000000000000, 0.000000000000000000, 0.000000000000000000 ) ) ;
#113 = PRODUCT ( 'Web Model 17563_17563', 'Web Model 17563_17563', '', ( #127 ) ) ;
#114 = DIRECTION ( 'NONE',  ( 0.000000000000000000, 0.000000000000000000, 1.000000000000000000 ) ) ;
#115 = ORIENTED_EDGE ( 'NONE', *, *, #49, .T. ) ;
#116 = DIRECTION ( 'NONE',  ( 0.000000000000000000, 0.000000000000000000, 1.000000000000000000 ) ) ;
#117 = LOCAL_TIME ( 14, 53, 5.000000000000000000, #134 ) ;
#118 = CC_DESIGN_APPROVAL ( #164, ( #54 ) ) ;
#119 = CARTESIAN_POINT ( 'NONE',  ( 2.952755904999996517, 3.616083067721691530E-16, 0.3149606299212598381 ) ) ;
#120 = ADVANCED_FACE ( 'NONE', ( #27 ), #105, .F. ) ;
#121 = CIRCLE ( 'NONE', #15, 2.952755904999996517 ) ;
#122 = LOCAL_TIME ( 14, 53, 5.000000000000000000, #108 ) ;
#123 = EDGE_LOOP ( 'NONE', ( #126, #149, #77, #92 ) ) ;
#124 = CALENDAR_DATE ( 2021, 3, 6 ) ;
#125 = DIRECTION ( 'NONE',  ( 0.000000000000000000, 0.000000000000000000, 1.000000000000000000 ) ) ;
#126 = ORIENTED_EDGE ( 'NONE', *, *, #49, .F. ) ;
#127 = MECHANICAL_CONTEXT ( 'NONE', #107, 'mechanical' ) ;
#128 = ORIENTED_EDGE ( 'NONE', *, *, #29, .T. ) ;
#129 = AXIS2_PLACEMENT_3D ( 'NONE', #56, #169, #84 ) ;
#130 = DATE_AND_TIME ( #111, #74 ) ;
#131 = VERTEX_POINT ( 'NONE', #19 ) ;
#132 = AXIS2_PLACEMENT_3D ( 'NONE', #85, #114, #50 ) ;
#133 = DIRECTION ( 'NONE',  ( -0.000000000000000000, -0.000000000000000000, -1.000000000000000000 ) ) ;
#134 = COORDINATED_UNIVERSAL_TIME_OFFSET ( 5, 0, .BEHIND. ) ;
#135 = CARTESIAN_POINT ( 'NONE',  ( 2.952755904999996517, 3.616083067721691530E-16, 0.000000000000000000 ) ) ;
#136 = DIRECTION ( 'NONE',  ( 0.000000000000000000, 0.000000000000000000, 1.000000000000000000 ) ) ;
#137 = CARTESIAN_POINT ( 'NONE',  ( 0.000000000000000000, 0.000000000000000000, 0.000000000000000000 ) ) ;
#138 = VERTEX_POINT ( 'NONE', #119 ) ;
#139 = PERSON_AND_ORGANIZATION ( #102, #17 ) ;
#140 = AXIS2_PLACEMENT_3D ( 'NONE', #41, #136, #156 ) ;
#141 =( NAMED_UNIT ( * ) SI_UNIT ( $, .STERADIAN. ) SOLID_ANGLE_UNIT ( ) );
#142 = DIMENSIONAL_EXPONENTS ( 1.000000000000000000, 0.000000000000000000, 0.000000000000000000, 0.000000000000000000, 0.000000000000000000, 0.000000000000000000, 0.000000000000000000 ) ;
#143 = DIRECTION ( 'NONE',  ( 0.000000000000000000, 0.000000000000000000, 1.000000000000000000 ) ) ;
#144 = PERSON_AND_ORGANIZATION ( #102, #17 ) ;
#145 = EDGE_CURVE ( 'NONE', #83, #131, #148, .T. ) ;
#146 = ORIENTED_EDGE ( 'NONE', *, *, #90, .F. ) ;
#147 = APPROVAL ( #160, 'UNSPECIFIED' ) ;
#148 = CIRCLE ( 'NONE', #109, 2.952755904999996517 ) ;
#149 = ORIENTED_EDGE ( 'NONE', *, *, #99, .T. ) ;
#150 = PERSON_AND_ORGANIZATION ( #102, #17 ) ;
#151 = ORIENTED_EDGE ( 'NONE', *, *, #145, .F. ) ;
#152 = DATE_AND_TIME ( #71, #1 ) ;
#153 = CC_DESIGN_PERSON_AND_ORGANIZATION_ASSIGNMENT ( #144, #73, ( #113 ) ) ;
#154 = DIRECTION ( 'NONE',  ( -0.000000000000000000, -0.000000000000000000, -1.000000000000000000 ) ) ;
#155 = EDGE_CURVE ( 'NONE', #131, #83, #110, .T. ) ;
#156 = DIRECTION ( 'NONE',  ( 1.000000000000000000, 0.000000000000000000, -0.000000000000000000 ) ) ;
#157 = COORDINATED_UNIVERSAL_TIME_OFFSET ( 5, 0, .BEHIND. ) ;
#158 = APPROVAL_ROLE ( '' ) ;
#159 = SECURITY_CLASSIFICATION ( '', '', #161 ) ;
#160 = APPROVAL_STATUS ( 'not_yet_approved' ) ;
#161 = SECURITY_CLASSIFICATION_LEVEL ( 'unclassified' ) ;
#162 = LINE ( 'NONE', #53, #64 ) ;
#163 = DATE_AND_TIME ( #20, #167 ) ;
#164 = APPROVAL ( #95, 'UNSPECIFIED' ) ;
#165 = AXIS2_PLACEMENT_3D ( 'NONE', #137, #125, #112 ) ;
#166 = FACE_OUTER_BOUND ( 'NONE', #16, .T. ) ;
#167 = LOCAL_TIME ( 14, 53, 5.000000000000000000, #47 ) ;
#168 = ORIENTED_EDGE ( 'NONE', *, *, #155, .T. ) ;
#169 = DIRECTION ( 'NONE',  ( -0.000000000000000000, -0.000000000000000000, -1.000000000000000000 ) ) ;
#170 = VERTEX_POINT ( 'NONE', #67 ) ;
#171 = DIRECTION ( 'NONE',  ( -0.000000000000000000, -0.000000000000000000, -1.000000000000000000 ) ) ;
#172 = CARTESIAN_POINT ( 'NONE',  ( -2.952755904999996517, 0.000000000000000000, 0.3149606299212598381 ) ) ;
#173 = DIRECTION ( 'NONE',  ( 0.000000000000000000, 0.000000000000000000, 1.000000000000000000 ) ) ;
#174 = CC_DESIGN_APPROVAL ( #82, ( #94 ) ) ;
#175 = CLOSED_SHELL ( 'NONE', ( #42, #22, #88, #120 ) ) ;
#176 = DATE_TIME_ROLE ( 'creation_date' ) ;
#177 = APPLICATION_PROTOCOL_DEFINITION ( 'international standard', 'config_control_design', 1994, #107 ) ;
#178 = PERSON_AND_ORGANIZATION ( #102, #17 ) ;
ENDSEC;
END-ISO-10303-21;
