ISO-10303-21;
HEADER;
FILE_DESCRIPTION (( 'STEP AP203' ),
    '1' );
FILE_NAME ('Web Model 89561.STEP',
    '2017-02-01T16:29:51',
    ( '' ),
    ( '' ),
    'SwSTEP 2.0',
    'SolidWorks 2016',
    '' );
FILE_SCHEMA (( 'CONFIG_CONTROL_DESIGN' ));
ENDSEC;

DATA;
#1 = APPROVAL_PERSON_ORGANIZATION ( #133, #76, #90 ) ;
#2 = LOCAL_TIME ( 11, 29, 51.00000000000000000, #70 ) ;
#3 = CARTESIAN_POINT ( 'NONE',  ( 0.0000000000000000000, 0.0000000000000000000, 0.0000000000000000000 ) ) ;
#4 =( NAMED_UNIT ( * ) SI_UNIT ( $, .STERADIAN. ) SOLID_ANGLE_UNIT ( ) );
#5 = ORIENTED_EDGE ( 'NONE', *, *, #100, .F. ) ;
#6 = CC_DESIGN_PERSON_AND_ORGANIZATION_ASSIGNMENT ( #30, #156, ( #69 ) ) ;
#7 = LOCAL_TIME ( 11, 29, 51.00000000000000000, #60 ) ;
#8 = APPROVAL_ROLE ( '' ) ;
#9 = FACE_OUTER_BOUND ( 'NONE', #84, .T. ) ;
#10 = APPROVAL_DATE_TIME ( #16, #76 ) ;
#11 = DATE_AND_TIME ( #81, #113 ) ;
#12 = VERTEX_POINT ( 'NONE', #152 ) ;
#13 = PRODUCT ( 'Web Model 89561', 'Web Model 89561', '', ( #52 ) ) ;
#14 = CC_DESIGN_APPROVAL ( #168, ( #165 ) ) ;
#15 = CARTESIAN_POINT ( 'NONE',  ( 0.0000000000000000000, 0.0000000000000000000, 0.0000000000000000000 ) ) ;
#16 = DATE_AND_TIME ( #50, #173 ) ;
#17 = PERSON_AND_ORGANIZATION ( #130, #86 ) ;
#18 = CARTESIAN_POINT ( 'NONE',  ( 0.0000000000000000000, 7.654042494670957600E-016, -6.250000000000000000 ) ) ;
#19 = ADVANCED_FACE ( 'NONE', ( #57 ), #83, .F. ) ;
#20 = AXIS2_PLACEMENT_3D ( 'NONE', #109, #126, #25 ) ;
#21 = DIRECTION ( 'NONE',  ( 1.000000000000000000, 0.0000000000000000000, 0.0000000000000000000 ) ) ;
#22 = CARTESIAN_POINT ( 'NONE',  ( 3.000000000000000000, 0.0000000000000000000, 0.0000000000000000000 ) ) ;
#23 = DIRECTION ( 'NONE',  ( -1.000000000000000000, -0.0000000000000000000, -0.0000000000000000000 ) ) ;
#24 = ORIENTED_EDGE ( 'NONE', *, *, #140, .T. ) ;
#25 = DIRECTION ( 'NONE',  ( 0.0000000000000000000, 0.0000000000000000000, -1.000000000000000000 ) ) ;
#26 = APPROVAL_DATE_TIME ( #11, #128 ) ;
#27 = CYLINDRICAL_SURFACE ( 'NONE', #67, 6.250000000000000000 ) ;
#28 = DIRECTION ( 'NONE',  ( 0.0000000000000000000, 0.0000000000000000000, 1.000000000000000000 ) ) ;
#29 = ORIENTED_EDGE ( 'NONE', *, *, #88, .F. ) ;
#30 = PERSON_AND_ORGANIZATION ( #130, #86 ) ;
#31 = COORDINATED_UNIVERSAL_TIME_OFFSET ( 5, 0, .BEHIND. ) ;
#32 = APPLICATION_PROTOCOL_DEFINITION ( 'international standard', 'config_control_design', 1994, #120 ) ;
#33 =( LENGTH_UNIT ( ) NAMED_UNIT ( * ) SI_UNIT ( .MILLI., .METRE. ) );
#34 = ADVANCED_FACE ( 'NONE', ( #9 ), #142, .T. ) ;
#35 = COORDINATED_UNIVERSAL_TIME_OFFSET ( 5, 0, .BEHIND. ) ;
#36 = APPROVAL_STATUS ( 'not_yet_approved' ) ;
#37 = LINE ( 'NONE', #102, #91 ) ;
#38 = PERSON_AND_ORGANIZATION ( #130, #86 ) ;
#39 = VERTEX_POINT ( 'NONE', #18 ) ;
#40 = PERSON_AND_ORGANIZATION_ROLE ( 'creator' ) ;
#41 = DIRECTION ( 'NONE',  ( 0.0000000000000000000, 0.0000000000000000000, -1.000000000000000000 ) ) ;
#42 = CC_DESIGN_DATE_AND_TIME_ASSIGNMENT ( #59, #132, ( #165 ) ) ;
#43 = ORIENTED_EDGE ( 'NONE', *, *, #115, .F. ) ;
#44 = PERSON_AND_ORGANIZATION ( #130, #86 ) ;
#45 = LINE ( 'NONE', #139, #141 ) ;
#46 = DIRECTION ( 'NONE',  ( 0.0000000000000000000, 0.0000000000000000000, 1.000000000000000000 ) ) ;
#47 = ORIENTED_EDGE ( 'NONE', *, *, #115, .T. ) ;
#48 = AXIS2_PLACEMENT_3D ( 'NONE', #3, #97, #136 ) ;
#49 = CC_DESIGN_PERSON_AND_ORGANIZATION_ASSIGNMENT ( #38, #121, ( #165 ) ) ;
#50 = CALENDAR_DATE ( 2017, 1, 2 ) ;
#51 = ORIENTED_EDGE ( 'NONE', *, *, #100, .T. ) ;
#52 = MECHANICAL_CONTEXT ( 'NONE', #85, 'mechanical' ) ;
#53 = DIRECTION ( 'NONE',  ( 1.000000000000000000, 0.0000000000000000000, 0.0000000000000000000 ) ) ;
#54 = PERSON_AND_ORGANIZATION ( #130, #86 ) ;
#55 =( GEOMETRIC_REPRESENTATION_CONTEXT ( 3 ) GLOBAL_UNCERTAINTY_ASSIGNED_CONTEXT ( ( #63 ) ) GLOBAL_UNIT_ASSIGNED_CONTEXT ( ( #33, #167, #4 ) ) REPRESENTATION_CONTEXT ( 'NONE', 'WORKASPACE' ) );
#56 = DIRECTION ( 'NONE',  ( 1.000000000000000000, 0.0000000000000000000, 0.0000000000000000000 ) ) ;
#57 = FACE_OUTER_BOUND ( 'NONE', #114, .T. ) ;
#58 = DATE_TIME_ROLE ( 'classification_date' ) ;
#59 = DATE_AND_TIME ( #170, #2 ) ;
#60 = COORDINATED_UNIVERSAL_TIME_OFFSET ( 5, 0, .BEHIND. ) ;
#61 = ADVANCED_FACE ( 'NONE', ( #116 ), #101, .T. ) ;
#62 = SECURITY_CLASSIFICATION ( '', '', #117 ) ;
#63 = UNCERTAINTY_MEASURE_WITH_UNIT (LENGTH_MEASURE( 1.000000000000000100E-005 ), #33, 'distance_accuracy_value', 'NONE');
#64 = CIRCLE ( 'NONE', #164, 6.250000000000000000 ) ;
#65 = CC_DESIGN_PERSON_AND_ORGANIZATION_ASSIGNMENT ( #54, #79, ( #13 ) ) ;
#66 = ORIENTED_EDGE ( 'NONE', *, *, #88, .T. ) ;
#67 = AXIS2_PLACEMENT_3D ( 'NONE', #169, #124, #149 ) ;
#68 = FACE_OUTER_BOUND ( 'NONE', #161, .T. ) ;
#69 = PRODUCT_DEFINITION_FORMATION_WITH_SPECIFIED_SOURCE ( 'ANY', '', #13, .NOT_KNOWN. ) ;
#70 = COORDINATED_UNIVERSAL_TIME_OFFSET ( 5, 0, .BEHIND. ) ;
#71 = ADVANCED_BREP_SHAPE_REPRESENTATION ( 'Web Model 89561', ( #159, #154 ), #55 ) ;
#72 = CARTESIAN_POINT ( 'NONE',  ( 3.000000000000000000, 0.0000000000000000000, 0.0000000000000000000 ) ) ;
#73 = LOCAL_TIME ( 11, 29, 51.00000000000000000, #31 ) ;
#74 = PERSON_AND_ORGANIZATION ( #130, #86 ) ;
#75 = AXIS2_PLACEMENT_3D ( 'NONE', #78, #171, #131 ) ;
#76 = APPROVAL ( #87, 'UNSPECIFIED' ) ;
#77 = PERSON_AND_ORGANIZATION ( #130, #86 ) ;
#78 = CARTESIAN_POINT ( 'NONE',  ( 3.000000000000000000, 0.0000000000000000000, 0.0000000000000000000 ) ) ;
#79 = PERSON_AND_ORGANIZATION_ROLE ( 'design_owner' ) ;
#80 = CARTESIAN_POINT ( 'NONE',  ( 0.0000000000000000000, 0.0000000000000000000, 0.0000000000000000000 ) ) ;
#81 = CALENDAR_DATE ( 2017, 1, 2 ) ;
#82 = CC_DESIGN_APPROVAL ( #76, ( #69 ) ) ;
#83 = PLANE ( 'NONE',  #48 ) ;
#84 = EDGE_LOOP ( 'NONE', ( #5, #125, #66, #47 ) ) ;
#85 = APPLICATION_CONTEXT ( 'configuration controlled 3d designs of mechanical parts and assemblies' ) ;
#86 = ORGANIZATION ( 'UNSPECIFIED', 'UNSPECIFIED', '' ) ;
#87 = APPROVAL_STATUS ( 'not_yet_approved' ) ;
#88 = EDGE_CURVE ( 'NONE', #12, #175, #45, .T. ) ;
#89 = SHAPE_DEFINITION_REPRESENTATION ( #147, #71 ) ;
#90 = APPROVAL_ROLE ( '' ) ;
#91 = VECTOR ( 'NONE', #23, 1000.000000000000000 ) ;
#92 = CLOSED_SHELL ( 'NONE', ( #104, #34, #61, #19 ) ) ;
#93 = PERSON_AND_ORGANIZATION_ROLE ( 'classification_officer' ) ;
#94 = CC_DESIGN_PERSON_AND_ORGANIZATION_ASSIGNMENT ( #44, #93, ( #62 ) ) ;
#95 = APPROVAL_ROLE ( '' ) ;
#96 = CIRCLE ( 'NONE', #135, 6.250000000000000000 ) ;
#97 = DIRECTION ( 'NONE',  ( 1.000000000000000000, 0.0000000000000000000, 0.0000000000000000000 ) ) ;
#98 = APPROVAL_DATE_TIME ( #107, #168 ) ;
#99 = PRODUCT_RELATED_PRODUCT_CATEGORY ( 'detail', '', ( #13 ) ) ;
#100 = EDGE_CURVE ( 'NONE', #110, #39, #37, .T. ) ;
#101 = PLANE ( 'NONE',  #122 ) ;
#102 = CARTESIAN_POINT ( 'NONE',  ( 3.000000000000000000, 7.654042494670957600E-016, -6.250000000000000000 ) ) ;
#103 = CIRCLE ( 'NONE', #75, 6.250000000000000000 ) ;
#104 = ADVANCED_FACE ( 'NONE', ( #68 ), #27, .T. ) ;
#105 = CC_DESIGN_PERSON_AND_ORGANIZATION_ASSIGNMENT ( #77, #40, ( #69 ) ) ;
#106 = APPLICATION_PROTOCOL_DEFINITION ( 'international standard', 'config_control_design', 1994, #85 ) ;
#107 = DATE_AND_TIME ( #144, #73 ) ;
#108 = EDGE_CURVE ( 'NONE', #12, #110, #103, .T. ) ;
#109 = CARTESIAN_POINT ( 'NONE',  ( 3.000000000000000000, 0.0000000000000000000, 0.0000000000000000000 ) ) ;
#110 = VERTEX_POINT ( 'NONE', #127 ) ;
#111 = CC_DESIGN_DATE_AND_TIME_ASSIGNMENT ( #151, #58, ( #62 ) ) ;
#112 = CARTESIAN_POINT ( 'NONE',  ( 0.0000000000000000000, 0.0000000000000000000, 0.0000000000000000000 ) ) ;
#113 = LOCAL_TIME ( 11, 29, 51.00000000000000000, #35 ) ;
#114 = EDGE_LOOP ( 'NONE', ( #43, #145 ) ) ;
#115 = EDGE_CURVE ( 'NONE', #175, #39, #64, .T. ) ;
#116 = FACE_OUTER_BOUND ( 'NONE', #166, .T. ) ;
#117 = SECURITY_CLASSIFICATION_LEVEL ( 'unclassified' ) ;
#118 = DIRECTION ( 'NONE',  ( -1.000000000000000000, -0.0000000000000000000, -0.0000000000000000000 ) ) ;
#119 = CC_DESIGN_SECURITY_CLASSIFICATION ( #62, ( #69 ) ) ;
#120 = APPLICATION_CONTEXT ( 'configuration controlled 3d designs of mechanical parts and assemblies' ) ;
#121 = PERSON_AND_ORGANIZATION_ROLE ( 'creator' ) ;
#122 = AXIS2_PLACEMENT_3D ( 'NONE', #22, #21, #123 ) ;
#123 = DIRECTION ( 'NONE',  ( 0.0000000000000000000, 0.0000000000000000000, -1.000000000000000000 ) ) ;
#124 = DIRECTION ( 'NONE',  ( -1.000000000000000000, -0.0000000000000000000, -0.0000000000000000000 ) ) ;
#125 = ORIENTED_EDGE ( 'NONE', *, *, #108, .F. ) ;
#126 = DIRECTION ( 'NONE',  ( 1.000000000000000000, 0.0000000000000000000, 0.0000000000000000000 ) ) ;
#127 = CARTESIAN_POINT ( 'NONE',  ( 3.000000000000000000, 7.654042494670957600E-016, -6.250000000000000000 ) ) ;
#128 = APPROVAL ( #143, 'UNSPECIFIED' ) ;
#129 = AXIS2_PLACEMENT_3D ( 'NONE', #72, #118, #46 ) ;
#130 = PERSON ( 'UNSPECIFIED', 'UNSPECIFIED', 'UNSPECIFIED', ('UNSPECIFIED'), ('UNSPECIFIED'), ('UNSPECIFIED') ) ;
#131 = DIRECTION ( 'NONE',  ( 0.0000000000000000000, 0.0000000000000000000, -1.000000000000000000 ) ) ;
#132 = DATE_TIME_ROLE ( 'creation_date' ) ;
#133 = PERSON_AND_ORGANIZATION ( #130, #86 ) ;
#134 = ORIENTED_EDGE ( 'NONE', *, *, #155, .F. ) ;
#135 = AXIS2_PLACEMENT_3D ( 'NONE', #80, #172, #41 ) ;
#136 = DIRECTION ( 'NONE',  ( 0.0000000000000000000, 0.0000000000000000000, -1.000000000000000000 ) ) ;
#137 = ORIENTED_EDGE ( 'NONE', *, *, #155, .T. ) ;
#138 = DIRECTION ( 'NONE',  ( -1.000000000000000000, -0.0000000000000000000, -0.0000000000000000000 ) ) ;
#139 = CARTESIAN_POINT ( 'NONE',  ( 3.000000000000000000, 0.0000000000000000000, 6.250000000000000000 ) ) ;
#140 = EDGE_CURVE ( 'NONE', #39, #175, #96, .T. ) ;
#141 = VECTOR ( 'NONE', #138, 1000.000000000000000 ) ;
#142 = CYLINDRICAL_SURFACE ( 'NONE', #129, 6.250000000000000000 ) ;
#143 = APPROVAL_STATUS ( 'not_yet_approved' ) ;
#144 = CALENDAR_DATE ( 2017, 1, 2 ) ;
#145 = ORIENTED_EDGE ( 'NONE', *, *, #140, .F. ) ;
#146 = CIRCLE ( 'NONE', #20, 6.250000000000000000 ) ;
#147 = PRODUCT_DEFINITION_SHAPE ( 'NONE', 'NONE',  #165 ) ;
#148 = COORDINATED_UNIVERSAL_TIME_OFFSET ( 5, 0, .BEHIND. ) ;
#149 = DIRECTION ( 'NONE',  ( 0.0000000000000000000, 0.0000000000000000000, 1.000000000000000000 ) ) ;
#150 = APPROVAL_PERSON_ORGANIZATION ( #74, #128, #95 ) ;
#151 = DATE_AND_TIME ( #163, #7 ) ;
#152 = CARTESIAN_POINT ( 'NONE',  ( 3.000000000000000000, 0.0000000000000000000, 6.250000000000000000 ) ) ;
#153 = DIRECTION ( 'NONE',  ( 0.0000000000000000000, 0.0000000000000000000, -1.000000000000000000 ) ) ;
#154 = AXIS2_PLACEMENT_3D ( 'NONE', #15, #28, #56 ) ;
#155 = EDGE_CURVE ( 'NONE', #110, #12, #146, .T. ) ;
#156 = PERSON_AND_ORGANIZATION_ROLE ( 'design_supplier' ) ;
#157 = DESIGN_CONTEXT ( 'detailed design', #120, 'design' ) ;
#158 = CC_DESIGN_APPROVAL ( #128, ( #62 ) ) ;
#159 = MANIFOLD_SOLID_BREP ( 'Extrude1', #92 ) ;
#160 = APPROVAL_PERSON_ORGANIZATION ( #17, #168, #8 ) ;
#161 = EDGE_LOOP ( 'NONE', ( #134, #51, #24, #29 ) ) ;
#162 = ORIENTED_EDGE ( 'NONE', *, *, #108, .T. ) ;
#163 = CALENDAR_DATE ( 2017, 1, 2 ) ;
#164 = AXIS2_PLACEMENT_3D ( 'NONE', #112, #53, #153 ) ;
#165 = PRODUCT_DEFINITION ( 'UNKNOWN', '', #69, #157 ) ;
#166 = EDGE_LOOP ( 'NONE', ( #162, #137 ) ) ;
#167 =( NAMED_UNIT ( * ) PLANE_ANGLE_UNIT ( ) SI_UNIT ( $, .RADIAN. ) );
#168 = APPROVAL ( #36, 'UNSPECIFIED' ) ;
#169 = CARTESIAN_POINT ( 'NONE',  ( 3.000000000000000000, 0.0000000000000000000, 0.0000000000000000000 ) ) ;
#170 = CALENDAR_DATE ( 2017, 1, 2 ) ;
#171 = DIRECTION ( 'NONE',  ( 1.000000000000000000, 0.0000000000000000000, 0.0000000000000000000 ) ) ;
#172 = DIRECTION ( 'NONE',  ( 1.000000000000000000, 0.0000000000000000000, 0.0000000000000000000 ) ) ;
#173 = LOCAL_TIME ( 11, 29, 51.00000000000000000, #148 ) ;
#174 = CARTESIAN_POINT ( 'NONE',  ( 0.0000000000000000000, 0.0000000000000000000, 6.250000000000000000 ) ) ;
#175 = VERTEX_POINT ( 'NONE', #174 ) ;
ENDSEC;
END-ISO-10303-21;
