ISO-10303-21;
HEADER;
FILE_DESCRIPTION (( 'STEP AP203' ),
    '1' );
FILE_NAME ('Web Model 55257MX_15747.step',
    '2020-10-19T17:07:28',
    ( '' ),
    ( '' ),
    'SwSTEP 2.0',
    'SolidWorks 2018',
    '' );
FILE_SCHEMA (( 'CONFIG_CONTROL_DESIGN' ));
ENDSEC;

DATA;
#1 =( NAMED_UNIT ( * ) PLANE_ANGLE_UNIT ( ) SI_UNIT ( $, .RADIAN. ) );
#2 = SECURITY_CLASSIFICATION_LEVEL ( 'unclassified' ) ;
#3 = ADVANCED_FACE ( 'NONE', ( #24 ), #101, .F. ) ;
#4 = EDGE_CURVE ( 'NONE', #163, #7, #144, .T. ) ;
#5 = APPROVAL_DATE_TIME ( #51, #223 ) ;
#6 = CC_DESIGN_DATE_AND_TIME_ASSIGNMENT ( #222, #235, ( #92 ) ) ;
#7 = VERTEX_POINT ( 'NONE', #30 ) ;
#8 = MANIFOLD_SOLID_BREP ( 'Boss-Extrude1', #39 ) ;
#9 = PERSON_AND_ORGANIZATION ( #157, #134 ) ;
#10 = LINE ( 'NONE', #103, #200 ) ;
#11 = PERSON_AND_ORGANIZATION ( #157, #134 ) ;
#12 = ORIENTED_EDGE ( 'NONE', *, *, #227, .T. ) ;
#13 = DIRECTION ( 'NONE',  ( 1.000000000000000000, 1.156482317317871478E-16, -0.0000000000000000000 ) ) ;
#14 = CARTESIAN_POINT ( 'NONE',  ( 15.00000000000000355, 15.00000000000000178, 3.000000000000000000 ) ) ;
#15 = EDGE_CURVE ( 'NONE', #55, #228, #207, .T. ) ;
#16 = CARTESIAN_POINT ( 'NONE',  ( 15.00000000000000355, -15.00000000000000000, 3.000000000000000000 ) ) ;
#17 = APPROVAL_STATUS ( 'not_yet_approved' ) ;
#18 = DIRECTION ( 'NONE',  ( 1.000000000000000000, 0.0000000000000000000, 0.0000000000000000000 ) ) ;
#19 = PRODUCT_RELATED_PRODUCT_CATEGORY ( 'detail', '', ( #138 ) ) ;
#20 = VECTOR ( 'NONE', #122, 1000.000000000000000 ) ;
#21 = COORDINATED_UNIVERSAL_TIME_OFFSET ( 5, 0, .BEHIND. ) ;
#22 = ADVANCED_FACE ( 'NONE', ( #221 ), #234, .F. ) ;
#23 = ORIENTED_EDGE ( 'NONE', *, *, #115, .F. ) ;
#24 = FACE_OUTER_BOUND ( 'NONE', #42, .T. ) ;
#25 = AXIS2_PLACEMENT_3D ( 'NONE', #139, #169, #192 ) ;
#26 = ORIENTED_EDGE ( 'NONE', *, *, #111, .T. ) ;
#27 = APPROVAL_DATE_TIME ( #78, #114 ) ;
#28 = ORIENTED_EDGE ( 'NONE', *, *, #15, .T. ) ;
#29 = APPROVAL ( #17, 'UNSPECIFIED' ) ;
#30 = CARTESIAN_POINT ( 'NONE',  ( -15.00000000000000000, 14.99999999999999822, -3.000000000000000000 ) ) ;
#31 = EDGE_LOOP ( 'NONE', ( #98, #189, #23, #187 ) ) ;
#32 = COORDINATED_UNIVERSAL_TIME_OFFSET ( 5, 0, .BEHIND. ) ;
#33 = ORIENTED_EDGE ( 'NONE', *, *, #143, .F. ) ;
#34 = DIRECTION ( 'NONE',  ( 1.000000000000000000, 0.0000000000000000000, 0.0000000000000000000 ) ) ;
#35 = CARTESIAN_POINT ( 'NONE',  ( 15.00000000000000355, -15.00000000000000000, 3.000000000000000000 ) ) ;
#36 = DIRECTION ( 'NONE',  ( 1.000000000000000000, 1.156482317317871478E-16, 0.0000000000000000000 ) ) ;
#37 = CARTESIAN_POINT ( 'NONE',  ( -15.00000000000000000, -15.00000000000000355, 3.000000000000000000 ) ) ;
#38 = PERSON_AND_ORGANIZATION_ROLE ( 'design_supplier' ) ;
#39 = CLOSED_SHELL ( 'NONE', ( #69, #22, #109, #3, #91, #180 ) ) ;
#40 = APPROVAL_ROLE ( '' ) ;
#41 = VECTOR ( 'NONE', #77, 1000.000000000000000 ) ;
#42 = EDGE_LOOP ( 'NONE', ( #52, #213, #206, #193 ) ) ;
#43 = VECTOR ( 'NONE', #158, 1000.000000000000000 ) ;
#44 = CARTESIAN_POINT ( 'NONE',  ( -15.00000000000000000, -15.00000000000000355, 3.000000000000000000 ) ) ;
#45 = VECTOR ( 'NONE', #124, 1000.000000000000000 ) ;
#46 = DIRECTION ( 'NONE',  ( 0.0000000000000000000, 0.0000000000000000000, 1.000000000000000000 ) ) ;
#47 = DIRECTION ( 'NONE',  ( 0.0000000000000000000, -0.0000000000000000000, 1.000000000000000000 ) ) ;
#48 = AXIS2_PLACEMENT_3D ( 'NONE', #80, #156, #123 ) ;
#49 = PLANE ( 'NONE',  #130 ) ;
#50 = FACE_OUTER_BOUND ( 'NONE', #72, .T. ) ;
#51 = DATE_AND_TIME ( #161, #220 ) ;
#52 = ORIENTED_EDGE ( 'NONE', *, *, #176, .T. ) ;
#53 = AXIS2_PLACEMENT_3D ( 'NONE', #229, #47, #170 ) ;
#54 = COORDINATED_UNIVERSAL_TIME_OFFSET ( 5, 0, .BEHIND. ) ;
#55 = VERTEX_POINT ( 'NONE', #233 ) ;
#56 = PRODUCT_DEFINITION_FORMATION_WITH_SPECIFIED_SOURCE ( 'ANY', '', #138, .NOT_KNOWN. ) ;
#57 = ORIENTED_EDGE ( 'NONE', *, *, #195, .T. ) ;
#58 = PERSON_AND_ORGANIZATION ( #157, #134 ) ;
#59 = EDGE_LOOP ( 'NONE', ( #112, #225, #145, #28 ) ) ;
#60 = CC_DESIGN_PERSON_AND_ORGANIZATION_ASSIGNMENT ( #11, #217, ( #56 ) ) ;
#61 = CARTESIAN_POINT ( 'NONE',  ( 15.00000000000000355, 15.00000000000000178, -3.000000000000000000 ) ) ;
#62 = VERTEX_POINT ( 'NONE', #35 ) ;
#63 = DIRECTION ( 'NONE',  ( 1.156482317317871478E-16, -1.000000000000000000, 0.0000000000000000000 ) ) ;
#64 = CARTESIAN_POINT ( 'NONE',  ( -15.00000000000000000, 14.99999999999999822, 3.000000000000000000 ) ) ;
#65 = CC_DESIGN_PERSON_AND_ORGANIZATION_ASSIGNMENT ( #179, #84, ( #138 ) ) ;
#66 =( NAMED_UNIT ( * ) SI_UNIT ( $, .STERADIAN. ) SOLID_ANGLE_UNIT ( ) );
#67 = LINE ( 'NONE', #212, #45 ) ;
#68 = DATE_AND_TIME ( #117, #165 ) ;
#69 = ADVANCED_FACE ( 'NONE', ( #131 ), #49, .F. ) ;
#70 = LINE ( 'NONE', #16, #210 ) ;
#71 = DESIGN_CONTEXT ( 'detailed design', #218, 'design' ) ;
#72 = EDGE_LOOP ( 'NONE', ( #160, #33, #100, #26 ) ) ;
#73 = CC_DESIGN_SECURITY_CLASSIFICATION ( #142, ( #56 ) ) ;
#74 = DIRECTION ( 'NONE',  ( -0.0000000000000000000, -0.0000000000000000000, -1.000000000000000000 ) ) ;
#75 = ORIENTED_EDGE ( 'NONE', *, *, #15, .F. ) ;
#76 = CARTESIAN_POINT ( 'NONE',  ( 15.00000000000000355, -15.00000000000000000, -3.000000000000000000 ) ) ;
#77 = DIRECTION ( 'NONE',  ( 0.0000000000000000000, 1.000000000000000000, 0.0000000000000000000 ) ) ;
#78 = DATE_AND_TIME ( #211, #226 ) ;
#79 = PERSON_AND_ORGANIZATION ( #157, #134 ) ;
#80 = CARTESIAN_POINT ( 'NONE',  ( 0.0000000000000000000, 0.0000000000000000000, 3.000000000000000000 ) ) ;
#81 = EDGE_CURVE ( 'NONE', #163, #55, #166, .T. ) ;
#82 = CARTESIAN_POINT ( 'NONE',  ( 15.00000000000000355, 15.00000000000000178, 3.000000000000000000 ) ) ;
#83 = APPROVAL_ROLE ( '' ) ;
#84 = PERSON_AND_ORGANIZATION_ROLE ( 'design_owner' ) ;
#85 = LINE ( 'NONE', #82, #173 ) ;
#86 = MECHANICAL_CONTEXT ( 'NONE', #141, 'mechanical' ) ;
#87 = DATE_TIME_ROLE ( 'classification_date' ) ;
#88 = VERTEX_POINT ( 'NONE', #61 ) ;
#89 = APPROVAL_STATUS ( 'not_yet_approved' ) ;
#90 = CALENDAR_DATE ( 2020, 19, 10 ) ;
#91 = ADVANCED_FACE ( 'NONE', ( #95 ), #190, .T. ) ;
#92 = PRODUCT_DEFINITION ( 'UNKNOWN', '', #56, #71 ) ;
#93 = LINE ( 'NONE', #76, #237 ) ;
#94 = AXIS2_PLACEMENT_3D ( 'NONE', #219, #104, #18 ) ;
#95 = FACE_OUTER_BOUND ( 'NONE', #202, .T. ) ;
#96 = CC_DESIGN_PERSON_AND_ORGANIZATION_ASSIGNMENT ( #107, #102, ( #92 ) ) ;
#97 = COORDINATED_UNIVERSAL_TIME_OFFSET ( 5, 0, .BEHIND. ) ;
#98 = ORIENTED_EDGE ( 'NONE', *, *, #227, .F. ) ;
#99 = DIRECTION ( 'NONE',  ( 0.0000000000000000000, 1.000000000000000000, 0.0000000000000000000 ) ) ;
#100 = ORIENTED_EDGE ( 'NONE', *, *, #164, .F. ) ;
#101 = PLANE ( 'NONE',  #236 ) ;
#102 = PERSON_AND_ORGANIZATION_ROLE ( 'creator' ) ;
#103 = CARTESIAN_POINT ( 'NONE',  ( -15.00000000000000000, -15.00000000000000355, -3.000000000000000000 ) ) ;
#104 = DIRECTION ( 'NONE',  ( 0.0000000000000000000, 0.0000000000000000000, 1.000000000000000000 ) ) ;
#105 = APPROVAL_PERSON_ORGANIZATION ( #79, #114, #194 ) ;
#106 = VECTOR ( 'NONE', #13, 1000.000000000000000 ) ;
#107 = PERSON_AND_ORGANIZATION ( #157, #134 ) ;
#108 = EDGE_LOOP ( 'NONE', ( #12, #75, #149, #120 ) ) ;
#109 = ADVANCED_FACE ( 'NONE', ( #50 ), #232, .F. ) ;
#110 = VECTOR ( 'NONE', #118, 1000.000000000000000 ) ;
#111 = EDGE_CURVE ( 'NONE', #62, #116, #140, .T. ) ;
#112 = ORIENTED_EDGE ( 'NONE', *, *, #208, .T. ) ;
#113 = PRODUCT_DEFINITION_SHAPE ( 'NONE', 'NONE',  #92 ) ;
#114 = APPROVAL ( #125, 'UNSPECIFIED' ) ;
#115 = EDGE_CURVE ( 'NONE', #116, #88, #93, .T. ) ;
#116 = VERTEX_POINT ( 'NONE', #171 ) ;
#117 = CALENDAR_DATE ( 2020, 19, 10 ) ;
#118 = DIRECTION ( 'NONE',  ( -0.0000000000000000000, -0.0000000000000000000, -1.000000000000000000 ) ) ;
#119 = UNCERTAINTY_MEASURE_WITH_UNIT (LENGTH_MEASURE( 1.000000000000000082E-05 ), #174, 'distance_accuracy_value', 'NONE');
#120 = ORIENTED_EDGE ( 'NONE', *, *, #4, .T. ) ;
#121 = CARTESIAN_POINT ( 'NONE',  ( 15.00000000000000355, -15.00000000000000000, 3.000000000000000000 ) ) ;
#122 = DIRECTION ( 'NONE',  ( -1.000000000000000000, -1.156482317317871478E-16, 0.0000000000000000000 ) ) ;
#123 = DIRECTION ( 'NONE',  ( 1.000000000000000000, 0.0000000000000000000, -0.0000000000000000000 ) ) ;
#124 = DIRECTION ( 'NONE',  ( -1.000000000000000000, -1.156482317317871478E-16, 0.0000000000000000000 ) ) ;
#125 = APPROVAL_STATUS ( 'not_yet_approved' ) ;
#126 = CC_DESIGN_APPROVAL ( #29, ( #56 ) ) ;
#127 = PERSON_AND_ORGANIZATION_ROLE ( 'classification_officer' ) ;
#128 = LINE ( 'NONE', #191, #20 ) ;
#129 = CARTESIAN_POINT ( 'NONE',  ( -15.00000000000000000, -15.00000000000000355, -3.000000000000000000 ) ) ;
#130 = AXIS2_PLACEMENT_3D ( 'NONE', #37, #34, #215 ) ;
#131 = FACE_OUTER_BOUND ( 'NONE', #108, .T. ) ;
#132 = VERTEX_POINT ( 'NONE', #14 ) ;
#133 = COORDINATED_UNIVERSAL_TIME_OFFSET ( 5, 0, .BEHIND. ) ;
#134 = ORGANIZATION ( 'UNSPECIFIED', 'UNSPECIFIED', '' ) ;
#135 = PLANE ( 'NONE',  #53 ) ;
#136 = AXIS2_PLACEMENT_3D ( 'NONE', #214, #216, #46 ) ;
#137 = CARTESIAN_POINT ( 'NONE',  ( 15.00000000000000355, 15.00000000000000178, 3.000000000000000000 ) ) ;
#138 = PRODUCT ( 'Web Model 55257MX_15747', 'Web Model 55257MX_15747', '', ( #86 ) ) ;
#139 = CARTESIAN_POINT ( 'NONE',  ( 15.00000000000000355, -15.00000000000000000, 3.000000000000000000 ) ) ;
#140 = LINE ( 'NONE', #155, #204 ) ;
#141 = APPLICATION_CONTEXT ( 'configuration controlled 3d designs of mechanical parts and assemblies' ) ;
#142 = SECURITY_CLASSIFICATION ( '', '', #2 ) ;
#143 = EDGE_CURVE ( 'NONE', #132, #88, #85, .T. ) ;
#144 = LINE ( 'NONE', #184, #146 ) ;
#145 = ORIENTED_EDGE ( 'NONE', *, *, #186, .F. ) ;
#146 = VECTOR ( 'NONE', #74, 1000.000000000000000 ) ;
#147 = PERSON_AND_ORGANIZATION ( #157, #134 ) ;
#148 = APPROVAL_PERSON_ORGANIZATION ( #147, #223, #40 ) ;
#149 = ORIENTED_EDGE ( 'NONE', *, *, #81, .F. ) ;
#150 = CC_DESIGN_PERSON_AND_ORGANIZATION_ASSIGNMENT ( #201, #127, ( #142 ) ) ;
#151 = LINE ( 'NONE', #168, #106 ) ;
#152 = DATE_AND_TIME ( #205, #199 ) ;
#153 = DIRECTION ( 'NONE',  ( -0.0000000000000000000, -0.0000000000000000000, -1.000000000000000000 ) ) ;
#154 = ORIENTED_EDGE ( 'NONE', *, *, #186, .T. ) ;
#155 = CARTESIAN_POINT ( 'NONE',  ( 15.00000000000000355, -15.00000000000000000, 3.000000000000000000 ) ) ;
#156 = DIRECTION ( 'NONE',  ( 0.0000000000000000000, -0.0000000000000000000, 1.000000000000000000 ) ) ;
#157 = PERSON ( 'UNSPECIFIED', 'UNSPECIFIED', 'UNSPECIFIED', ('UNSPECIFIED'), ('UNSPECIFIED'), ('UNSPECIFIED') ) ;
#158 = DIRECTION ( 'NONE',  ( -0.0000000000000000000, -1.000000000000000000, -0.0000000000000000000 ) ) ;
#159 = FACE_OUTER_BOUND ( 'NONE', #31, .T. ) ;
#160 = ORIENTED_EDGE ( 'NONE', *, *, #115, .T. ) ;
#161 = CALENDAR_DATE ( 2020, 19, 10 ) ;
#162 = CC_DESIGN_DATE_AND_TIME_ASSIGNMENT ( #152, #87, ( #142 ) ) ;
#163 = VERTEX_POINT ( 'NONE', #64 ) ;
#164 = EDGE_CURVE ( 'NONE', #62, #132, #185, .T. ) ;
#165 = LOCAL_TIME ( 13, 7, 28.00000000000000000, #133 ) ;
#166 = LINE ( 'NONE', #188, #43 ) ;
#167 = LOCAL_TIME ( 13, 7, 28.00000000000000000, #54 ) ;
#168 = CARTESIAN_POINT ( 'NONE',  ( 15.00000000000000355, -15.00000000000000000, -3.000000000000000000 ) ) ;
#169 = DIRECTION ( 'NONE',  ( -1.156482317317871478E-16, 1.000000000000000000, 0.0000000000000000000 ) ) ;
#170 = DIRECTION ( 'NONE',  ( 1.000000000000000000, 0.0000000000000000000, -0.0000000000000000000 ) ) ;
#171 = CARTESIAN_POINT ( 'NONE',  ( 15.00000000000000355, -15.00000000000000000, -3.000000000000000000 ) ) ;
#172 = DIRECTION ( 'NONE',  ( -0.0000000000000000000, -0.0000000000000000000, -1.000000000000000000 ) ) ;
#173 = VECTOR ( 'NONE', #153, 1000.000000000000000 ) ;
#174 =( LENGTH_UNIT ( ) NAMED_UNIT ( * ) SI_UNIT ( .MILLI., .METRE. ) );
#175 = CC_DESIGN_APPROVAL ( #223, ( #142 ) ) ;
#176 = EDGE_CURVE ( 'NONE', #88, #7, #67, .T. ) ;
#177 = ORIENTED_EDGE ( 'NONE', *, *, #164, .T. ) ;
#178 = APPROVAL_DATE_TIME ( #68, #29 ) ;
#179 = PERSON_AND_ORGANIZATION ( #157, #134 ) ;
#180 = ADVANCED_FACE ( 'NONE', ( #159 ), #135, .F. ) ;
#181 = APPROVAL_PERSON_ORGANIZATION ( #9, #29, #83 ) ;
#182 = SHAPE_DEFINITION_REPRESENTATION ( #113, #209 ) ;
#183 = CC_DESIGN_APPROVAL ( #114, ( #92 ) ) ;
#184 = CARTESIAN_POINT ( 'NONE',  ( -15.00000000000000000, 14.99999999999999822, 3.000000000000000000 ) ) ;
#185 = LINE ( 'NONE', #121, #41 ) ;
#186 = EDGE_CURVE ( 'NONE', #55, #62, #70, .T. ) ;
#187 = ORIENTED_EDGE ( 'NONE', *, *, #208, .F. ) ;
#188 = CARTESIAN_POINT ( 'NONE',  ( -15.00000000000000000, -15.00000000000000355, 3.000000000000000000 ) ) ;
#189 = ORIENTED_EDGE ( 'NONE', *, *, #176, .F. ) ;
#190 = PLANE ( 'NONE',  #48 ) ;
#191 = CARTESIAN_POINT ( 'NONE',  ( 15.00000000000000355, 15.00000000000000178, 3.000000000000000000 ) ) ;
#192 = DIRECTION ( 'NONE',  ( -1.000000000000000000, -1.156482317317871478E-16, 0.0000000000000000000 ) ) ;
#193 = ORIENTED_EDGE ( 'NONE', *, *, #143, .T. ) ;
#194 = APPROVAL_ROLE ( '' ) ;
#195 = EDGE_CURVE ( 'NONE', #132, #163, #128, .T. ) ;
#196 = APPLICATION_PROTOCOL_DEFINITION ( 'international standard', 'config_control_design', 1994, #141 ) ;
#197 = DIRECTION ( 'NONE',  ( -0.0000000000000000000, -1.000000000000000000, -0.0000000000000000000 ) ) ;
#198 = APPLICATION_PROTOCOL_DEFINITION ( 'international standard', 'config_control_design', 1994, #218 ) ;
#199 = LOCAL_TIME ( 13, 7, 28.00000000000000000, #21 ) ;
#200 = VECTOR ( 'NONE', #197, 1000.000000000000000 ) ;
#201 = PERSON_AND_ORGANIZATION ( #157, #134 ) ;
#202 = EDGE_LOOP ( 'NONE', ( #224, #154, #177, #57 ) ) ;
#203 = CC_DESIGN_PERSON_AND_ORGANIZATION_ASSIGNMENT ( #58, #38, ( #56 ) ) ;
#204 = VECTOR ( 'NONE', #172, 1000.000000000000000 ) ;
#205 = CALENDAR_DATE ( 2020, 19, 10 ) ;
#206 = ORIENTED_EDGE ( 'NONE', *, *, #195, .F. ) ;
#207 = LINE ( 'NONE', #44, #110 ) ;
#208 = EDGE_CURVE ( 'NONE', #228, #116, #151, .T. ) ;
#209 = ADVANCED_BREP_SHAPE_REPRESENTATION ( 'Web Model 55257MX_15747', ( #8, #94 ), #230 ) ;
#210 = VECTOR ( 'NONE', #231, 1000.000000000000000 ) ;
#211 = CALENDAR_DATE ( 2020, 19, 10 ) ;
#212 = CARTESIAN_POINT ( 'NONE',  ( 15.00000000000000355, 15.00000000000000178, -3.000000000000000000 ) ) ;
#213 = ORIENTED_EDGE ( 'NONE', *, *, #4, .F. ) ;
#214 = CARTESIAN_POINT ( 'NONE',  ( 15.00000000000000355, -15.00000000000000000, 3.000000000000000000 ) ) ;
#215 = DIRECTION ( 'NONE',  ( 0.0000000000000000000, 0.0000000000000000000, -1.000000000000000000 ) ) ;
#216 = DIRECTION ( 'NONE',  ( -1.000000000000000000, 0.0000000000000000000, 0.0000000000000000000 ) ) ;
#217 = PERSON_AND_ORGANIZATION_ROLE ( 'creator' ) ;
#218 = APPLICATION_CONTEXT ( 'configuration controlled 3d designs of mechanical parts and assemblies' ) ;
#219 = CARTESIAN_POINT ( 'NONE',  ( 0.0000000000000000000, 0.0000000000000000000, 0.0000000000000000000 ) ) ;
#220 = LOCAL_TIME ( 13, 7, 28.00000000000000000, #97 ) ;
#221 = FACE_OUTER_BOUND ( 'NONE', #59, .T. ) ;
#222 = DATE_AND_TIME ( #90, #167 ) ;
#223 = APPROVAL ( #89, 'UNSPECIFIED' ) ;
#224 = ORIENTED_EDGE ( 'NONE', *, *, #81, .T. ) ;
#225 = ORIENTED_EDGE ( 'NONE', *, *, #111, .F. ) ;
#226 = LOCAL_TIME ( 13, 7, 28.00000000000000000, #32 ) ;
#227 = EDGE_CURVE ( 'NONE', #7, #228, #10, .T. ) ;
#228 = VERTEX_POINT ( 'NONE', #129 ) ;
#229 = CARTESIAN_POINT ( 'NONE',  ( 0.0000000000000000000, 0.0000000000000000000, -3.000000000000000000 ) ) ;
#230 =( GEOMETRIC_REPRESENTATION_CONTEXT ( 3 ) GLOBAL_UNCERTAINTY_ASSIGNED_CONTEXT ( ( #119 ) ) GLOBAL_UNIT_ASSIGNED_CONTEXT ( ( #174, #1, #66 ) ) REPRESENTATION_CONTEXT ( 'NONE', 'WORKASPACE' ) );
#231 = DIRECTION ( 'NONE',  ( 1.000000000000000000, 1.156482317317871478E-16, -0.0000000000000000000 ) ) ;
#232 = PLANE ( 'NONE',  #136 ) ;
#233 = CARTESIAN_POINT ( 'NONE',  ( -15.00000000000000000, -15.00000000000000355, 3.000000000000000000 ) ) ;
#234 = PLANE ( 'NONE',  #25 ) ;
#235 = DATE_TIME_ROLE ( 'creation_date' ) ;
#236 = AXIS2_PLACEMENT_3D ( 'NONE', #137, #63, #36 ) ;
#237 = VECTOR ( 'NONE', #99, 1000.000000000000000 ) ;
ENDSEC;
END-ISO-10303-21;
