ISO-10303-21;
HEADER;
FILE_DESCRIPTION (( 'STEP AP203' ),
    '1' );
FILE_NAME ('Web Model 46460_48504.step',
    '2018-03-15T18:34:23',
    ( '' ),
    ( '' ),
    'SwSTEP 2.0',
    'SolidWorks 2016',
    '' );
FILE_SCHEMA (( 'CONFIG_CONTROL_DESIGN' ));
ENDSEC;

DATA;
#1 = LINE ( 'NONE', #92, #139 ) ;
#2 = PERSON_AND_ORGANIZATION ( #22, #164 ) ;
#3 = CYLINDRICAL_SURFACE ( 'NONE', #157, 18.99999999999999600 ) ;
#4 = AXIS2_PLACEMENT_3D ( 'NONE', #7, #169, #144 ) ;
#5 = PRODUCT ( 'Web Model 46460_48504', 'Web Model 46460_48504', '', ( #27 ) ) ;
#6 = DIRECTION ( 'NONE',  ( 0.0000000000000000000, 0.0000000000000000000, -1.000000000000000000 ) ) ;
#7 = CARTESIAN_POINT ( 'NONE',  ( -0.7500000000000000000, 0.0000000000000000000, 0.0000000000000000000 ) ) ;
#8 = CARTESIAN_POINT ( 'NONE',  ( 0.7500000000000000000, 0.0000000000000000000, 0.0000000000000000000 ) ) ;
#9 = EDGE_CURVE ( 'NONE', #67, #174, #15, .T. ) ;
#10 = CYLINDRICAL_SURFACE ( 'NONE', #117, 18.99999999999999600 ) ;
#11 = APPLICATION_PROTOCOL_DEFINITION ( 'international standard', 'config_control_design', 1994, #134 ) ;
#12 = CC_DESIGN_PERSON_AND_ORGANIZATION_ASSIGNMENT ( #108, #41, ( #78 ) ) ;
#13 = APPLICATION_CONTEXT ( 'configuration controlled 3d designs of mechanical parts and assemblies' ) ;
#14 = CALENDAR_DATE ( 2018, 15, 3 ) ;
#15 = LINE ( 'NONE', #74, #107 ) ;
#16 = PERSON_AND_ORGANIZATION ( #22, #164 ) ;
#17 = APPROVAL_PERSON_ORGANIZATION ( #60, #58, #173 ) ;
#18 = EDGE_LOOP ( 'NONE', ( #140, #56 ) ) ;
#19 = APPROVAL_PERSON_ORGANIZATION ( #122, #95, #91 ) ;
#20 = CC_DESIGN_APPROVAL ( #58, ( #142 ) ) ;
#21 = DIRECTION ( 'NONE',  ( -1.000000000000000000, -0.0000000000000000000, -0.0000000000000000000 ) ) ;
#22 = PERSON ( 'UNSPECIFIED', 'UNSPECIFIED', 'UNSPECIFIED', ('UNSPECIFIED'), ('UNSPECIFIED'), ('UNSPECIFIED') ) ;
#23 = PLANE ( 'NONE',  #46 ) ;
#24 = CARTESIAN_POINT ( 'NONE',  ( 0.7500000000000000000, 0.0000000000000000000, 18.99999999999999600 ) ) ;
#25 = DIRECTION ( 'NONE',  ( -1.000000000000000000, -0.0000000000000000000, -0.0000000000000000000 ) ) ;
#26 = DIRECTION ( 'NONE',  ( -1.000000000000000000, -0.0000000000000000000, -0.0000000000000000000 ) ) ;
#27 = MECHANICAL_CONTEXT ( 'NONE', #13, 'mechanical' ) ;
#28 = EDGE_CURVE ( 'NONE', #153, #174, #155, .T. ) ;
#29 = APPROVAL_DATE_TIME ( #98, #84 ) ;
#30 =( GEOMETRIC_REPRESENTATION_CONTEXT ( 3 ) GLOBAL_UNCERTAINTY_ASSIGNED_CONTEXT ( ( #77 ) ) GLOBAL_UNIT_ASSIGNED_CONTEXT ( ( #70, #148, #43 ) ) REPRESENTATION_CONTEXT ( 'NONE', 'WORKASPACE' ) );
#31 = APPROVAL_DATE_TIME ( #112, #58 ) ;
#32 = MANIFOLD_SOLID_BREP ( 'Boss-Extrude1', #128 ) ;
#33 = SECURITY_CLASSIFICATION ( '', '', #162 ) ;
#34 = LOCAL_TIME ( 14, 34, 23.00000000000000000, #163 ) ;
#35 = EDGE_CURVE ( 'NONE', #67, #36, #111, .T. ) ;
#36 = VERTEX_POINT ( 'NONE', #66 ) ;
#37 = APPROVAL_PERSON_ORGANIZATION ( #73, #84, #137 ) ;
#38 = AXIS2_PLACEMENT_3D ( 'NONE', #100, #116, #147 ) ;
#39 = DIRECTION ( 'NONE',  ( 0.0000000000000000000, 0.0000000000000000000, -1.000000000000000000 ) ) ;
#40 = EDGE_CURVE ( 'NONE', #174, #153, #124, .T. ) ;
#41 = PERSON_AND_ORGANIZATION_ROLE ( 'creator' ) ;
#42 = COORDINATED_UNIVERSAL_TIME_OFFSET ( 5, 0, .BEHIND. ) ;
#43 =( NAMED_UNIT ( * ) SI_UNIT ( $, .STERADIAN. ) SOLID_ANGLE_UNIT ( ) );
#44 = CC_DESIGN_DATE_AND_TIME_ASSIGNMENT ( #71, #105, ( #33 ) ) ;
#45 = ADVANCED_FACE ( 'NONE', ( #119 ), #10, .T. ) ;
#46 = AXIS2_PLACEMENT_3D ( 'NONE', #133, #161, #57 ) ;
#47 = ORIENTED_EDGE ( 'NONE', *, *, #35, .T. ) ;
#48 = CALENDAR_DATE ( 2018, 15, 3 ) ;
#49 = PRODUCT_DEFINITION_SHAPE ( 'NONE', 'NONE',  #142 ) ;
#50 = ORIENTED_EDGE ( 'NONE', *, *, #103, .F. ) ;
#51 = DIRECTION ( 'NONE',  ( 0.0000000000000000000, 0.0000000000000000000, 1.000000000000000000 ) ) ;
#52 = DESIGN_CONTEXT ( 'detailed design', #134, 'design' ) ;
#53 = COORDINATED_UNIVERSAL_TIME_OFFSET ( 5, 0, .BEHIND. ) ;
#54 = DIRECTION ( 'NONE',  ( 1.000000000000000000, 0.0000000000000000000, 0.0000000000000000000 ) ) ;
#55 = APPROVAL_STATUS ( 'not_yet_approved' ) ;
#56 = ORIENTED_EDGE ( 'NONE', *, *, #28, .F. ) ;
#57 = DIRECTION ( 'NONE',  ( 0.0000000000000000000, 0.0000000000000000000, -1.000000000000000000 ) ) ;
#58 = APPROVAL ( #55, 'UNSPECIFIED' ) ;
#59 = PERSON_AND_ORGANIZATION ( #22, #164 ) ;
#60 = PERSON_AND_ORGANIZATION ( #22, #164 ) ;
#61 = ORIENTED_EDGE ( 'NONE', *, *, #103, .T. ) ;
#62 = COORDINATED_UNIVERSAL_TIME_OFFSET ( 5, 0, .BEHIND. ) ;
#63 = ORIENTED_EDGE ( 'NONE', *, *, #28, .T. ) ;
#64 = CC_DESIGN_PERSON_AND_ORGANIZATION_ASSIGNMENT ( #127, #82, ( #5 ) ) ;
#65 = COORDINATED_UNIVERSAL_TIME_OFFSET ( 5, 0, .BEHIND. ) ;
#66 = CARTESIAN_POINT ( 'NONE',  ( 0.7500000000000000000, 2.326828918379970600E-015, -18.99999999999999600 ) ) ;
#67 = VERTEX_POINT ( 'NONE', #24 ) ;
#68 = CARTESIAN_POINT ( 'NONE',  ( -0.7500000000000000000, 2.326828918379970600E-015, -18.99999999999999600 ) ) ;
#69 = CARTESIAN_POINT ( 'NONE',  ( 0.0000000000000000000, 0.0000000000000000000, 0.0000000000000000000 ) ) ;
#70 =( LENGTH_UNIT ( ) NAMED_UNIT ( * ) SI_UNIT ( .MILLI., .METRE. ) );
#71 = DATE_AND_TIME ( #126, #80 ) ;
#72 = LOCAL_TIME ( 14, 34, 23.00000000000000000, #62 ) ;
#73 = PERSON_AND_ORGANIZATION ( #22, #164 ) ;
#74 = CARTESIAN_POINT ( 'NONE',  ( 0.7500000000000000000, 0.0000000000000000000, 18.99999999999999600 ) ) ;
#75 = CARTESIAN_POINT ( 'NONE',  ( 0.7500000000000000000, 0.0000000000000000000, 0.0000000000000000000 ) ) ;
#76 = DIRECTION ( 'NONE',  ( 1.000000000000000000, 0.0000000000000000000, 0.0000000000000000000 ) ) ;
#77 = UNCERTAINTY_MEASURE_WITH_UNIT (LENGTH_MEASURE( 1.000000000000000100E-005 ), #70, 'distance_accuracy_value', 'NONE');
#78 = PRODUCT_DEFINITION_FORMATION_WITH_SPECIFIED_SOURCE ( 'ANY', '', #5, .NOT_KNOWN. ) ;
#79 = ORIENTED_EDGE ( 'NONE', *, *, #110, .T. ) ;
#80 = LOCAL_TIME ( 14, 34, 23.00000000000000000, #65 ) ;
#81 = PERSON_AND_ORGANIZATION_ROLE ( 'creator' ) ;
#82 = PERSON_AND_ORGANIZATION_ROLE ( 'design_owner' ) ;
#83 = ADVANCED_FACE ( 'NONE', ( #104 ), #130, .F. ) ;
#84 = APPROVAL ( #118, 'UNSPECIFIED' ) ;
#85 = ORIENTED_EDGE ( 'NONE', *, *, #9, .F. ) ;
#86 = CC_DESIGN_PERSON_AND_ORGANIZATION_ASSIGNMENT ( #16, #171, ( #78 ) ) ;
#87 = DATE_AND_TIME ( #141, #34 ) ;
#88 = CC_DESIGN_APPROVAL ( #95, ( #78 ) ) ;
#89 = ORIENTED_EDGE ( 'NONE', *, *, #9, .T. ) ;
#90 = APPROVAL_STATUS ( 'not_yet_approved' ) ;
#91 = APPROVAL_ROLE ( '' ) ;
#92 = CARTESIAN_POINT ( 'NONE',  ( 0.7500000000000000000, 2.326828918379970600E-015, -18.99999999999999600 ) ) ;
#93 = CC_DESIGN_PERSON_AND_ORGANIZATION_ASSIGNMENT ( #2, #149, ( #33 ) ) ;
#94 = PRODUCT_RELATED_PRODUCT_CATEGORY ( 'detail', '', ( #5 ) ) ;
#95 = APPROVAL ( #90, 'UNSPECIFIED' ) ;
#96 = ADVANCED_BREP_SHAPE_REPRESENTATION ( 'Web Model 46460_48504', ( #32, #168 ), #30 ) ;
#97 = FACE_OUTER_BOUND ( 'NONE', #170, .T. ) ;
#98 = DATE_AND_TIME ( #48, #138 ) ;
#99 = CC_DESIGN_APPROVAL ( #84, ( #33 ) ) ;
#100 = CARTESIAN_POINT ( 'NONE',  ( 0.7500000000000000000, 0.0000000000000000000, 0.0000000000000000000 ) ) ;
#101 = CARTESIAN_POINT ( 'NONE',  ( -0.7500000000000000000, 0.0000000000000000000, 0.0000000000000000000 ) ) ;
#102 = APPLICATION_PROTOCOL_DEFINITION ( 'international standard', 'config_control_design', 1994, #13 ) ;
#103 = EDGE_CURVE ( 'NONE', #36, #67, #109, .T. ) ;
#104 = FACE_OUTER_BOUND ( 'NONE', #18, .T. ) ;
#105 = DATE_TIME_ROLE ( 'classification_date' ) ;
#106 = ADVANCED_FACE ( 'NONE', ( #113 ), #3, .T. ) ;
#107 = VECTOR ( 'NONE', #21, 1000.000000000000000 ) ;
#108 = PERSON_AND_ORGANIZATION ( #22, #164 ) ;
#109 = CIRCLE ( 'NONE', #38, 18.99999999999999600 ) ;
#110 = EDGE_CURVE ( 'NONE', #36, #153, #1, .T. ) ;
#111 = CIRCLE ( 'NONE', #136, 18.99999999999999600 ) ;
#112 = DATE_AND_TIME ( #14, #152 ) ;
#113 = FACE_OUTER_BOUND ( 'NONE', #125, .T. ) ;
#114 = CARTESIAN_POINT ( 'NONE',  ( -0.7500000000000000000, 0.0000000000000000000, 0.0000000000000000000 ) ) ;
#115 = DIRECTION ( 'NONE',  ( 0.0000000000000000000, 0.0000000000000000000, -1.000000000000000000 ) ) ;
#116 = DIRECTION ( 'NONE',  ( 1.000000000000000000, 0.0000000000000000000, 0.0000000000000000000 ) ) ;
#117 = AXIS2_PLACEMENT_3D ( 'NONE', #8, #26, #51 ) ;
#118 = APPROVAL_STATUS ( 'not_yet_approved' ) ;
#119 = FACE_OUTER_BOUND ( 'NONE', #166, .T. ) ;
#120 = DATE_TIME_ROLE ( 'creation_date' ) ;
#121 = AXIS2_PLACEMENT_3D ( 'NONE', #114, #54, #6 ) ;
#122 = PERSON_AND_ORGANIZATION ( #22, #164 ) ;
#123 = CC_DESIGN_SECURITY_CLASSIFICATION ( #33, ( #78 ) ) ;
#124 = CIRCLE ( 'NONE', #4, 18.99999999999999600 ) ;
#125 = EDGE_LOOP ( 'NONE', ( #50, #79, #63, #85 ) ) ;
#126 = CALENDAR_DATE ( 2018, 15, 3 ) ;
#127 = PERSON_AND_ORGANIZATION ( #22, #164 ) ;
#128 = CLOSED_SHELL ( 'NONE', ( #106, #45, #135, #83 ) ) ;
#129 = CC_DESIGN_DATE_AND_TIME_ASSIGNMENT ( #150, #120, ( #142 ) ) ;
#130 = PLANE ( 'NONE',  #121 ) ;
#131 = DIRECTION ( 'NONE',  ( 0.0000000000000000000, 0.0000000000000000000, 1.000000000000000000 ) ) ;
#132 = DIRECTION ( 'NONE',  ( -1.000000000000000000, -0.0000000000000000000, -0.0000000000000000000 ) ) ;
#133 = CARTESIAN_POINT ( 'NONE',  ( 0.7500000000000000000, 0.0000000000000000000, 0.0000000000000000000 ) ) ;
#134 = APPLICATION_CONTEXT ( 'configuration controlled 3d designs of mechanical parts and assemblies' ) ;
#135 = ADVANCED_FACE ( 'NONE', ( #97 ), #23, .T. ) ;
#136 = AXIS2_PLACEMENT_3D ( 'NONE', #75, #145, #39 ) ;
#137 = APPROVAL_ROLE ( '' ) ;
#138 = LOCAL_TIME ( 14, 34, 23.00000000000000000, #42 ) ;
#139 = VECTOR ( 'NONE', #132, 1000.000000000000000 ) ;
#140 = ORIENTED_EDGE ( 'NONE', *, *, #40, .F. ) ;
#141 = CALENDAR_DATE ( 2018, 15, 3 ) ;
#142 = PRODUCT_DEFINITION ( 'UNKNOWN', '', #78, #52 ) ;
#143 = ORIENTED_EDGE ( 'NONE', *, *, #35, .F. ) ;
#144 = DIRECTION ( 'NONE',  ( 0.0000000000000000000, 0.0000000000000000000, -1.000000000000000000 ) ) ;
#145 = DIRECTION ( 'NONE',  ( 1.000000000000000000, 0.0000000000000000000, 0.0000000000000000000 ) ) ;
#146 = CARTESIAN_POINT ( 'NONE',  ( 0.7500000000000000000, 0.0000000000000000000, 0.0000000000000000000 ) ) ;
#147 = DIRECTION ( 'NONE',  ( 0.0000000000000000000, 0.0000000000000000000, -1.000000000000000000 ) ) ;
#148 =( NAMED_UNIT ( * ) PLANE_ANGLE_UNIT ( ) SI_UNIT ( $, .RADIAN. ) );
#149 = PERSON_AND_ORGANIZATION_ROLE ( 'classification_officer' ) ;
#150 = DATE_AND_TIME ( #175, #72 ) ;
#151 = CARTESIAN_POINT ( 'NONE',  ( -0.7500000000000000000, 0.0000000000000000000, 18.99999999999999600 ) ) ;
#152 = LOCAL_TIME ( 14, 34, 23.00000000000000000, #53 ) ;
#153 = VERTEX_POINT ( 'NONE', #68 ) ;
#154 = CC_DESIGN_PERSON_AND_ORGANIZATION_ASSIGNMENT ( #59, #81, ( #142 ) ) ;
#155 = CIRCLE ( 'NONE', #172, 18.99999999999999600 ) ;
#156 = DIRECTION ( 'NONE',  ( 1.000000000000000000, 0.0000000000000000000, 0.0000000000000000000 ) ) ;
#157 = AXIS2_PLACEMENT_3D ( 'NONE', #146, #25, #131 ) ;
#158 = DIRECTION ( 'NONE',  ( 0.0000000000000000000, 0.0000000000000000000, 1.000000000000000000 ) ) ;
#159 = ORIENTED_EDGE ( 'NONE', *, *, #110, .F. ) ;
#160 = ORIENTED_EDGE ( 'NONE', *, *, #40, .T. ) ;
#161 = DIRECTION ( 'NONE',  ( 1.000000000000000000, 0.0000000000000000000, 0.0000000000000000000 ) ) ;
#162 = SECURITY_CLASSIFICATION_LEVEL ( 'unclassified' ) ;
#163 = COORDINATED_UNIVERSAL_TIME_OFFSET ( 5, 0, .BEHIND. ) ;
#164 = ORGANIZATION ( 'UNSPECIFIED', 'UNSPECIFIED', '' ) ;
#165 = SHAPE_DEFINITION_REPRESENTATION ( #49, #96 ) ;
#166 = EDGE_LOOP ( 'NONE', ( #159, #143, #89, #160 ) ) ;
#167 = APPROVAL_DATE_TIME ( #87, #95 ) ;
#168 = AXIS2_PLACEMENT_3D ( 'NONE', #69, #158, #76 ) ;
#169 = DIRECTION ( 'NONE',  ( 1.000000000000000000, 0.0000000000000000000, 0.0000000000000000000 ) ) ;
#170 = EDGE_LOOP ( 'NONE', ( #47, #61 ) ) ;
#171 = PERSON_AND_ORGANIZATION_ROLE ( 'design_supplier' ) ;
#172 = AXIS2_PLACEMENT_3D ( 'NONE', #101, #156, #115 ) ;
#173 = APPROVAL_ROLE ( '' ) ;
#174 = VERTEX_POINT ( 'NONE', #151 ) ;
#175 = CALENDAR_DATE ( 2018, 15, 3 ) ;
ENDSEC;
END-ISO-10303-21;
