ISO-10303-21;
HEADER;
FILE_DESCRIPTION (( 'STEP AP203' ),
    '1' );
FILE_NAME ('Web Model 37128MX_15764.step',
    '2020-10-19T15:42:31',
    ( '' ),
    ( '' ),
    'SwSTEP 2.0',
    'SolidWorks 2018',
    '' );
FILE_SCHEMA (( 'CONFIG_CONTROL_DESIGN' ));
ENDSEC;

DATA;
#1 = VECTOR ( 'NONE', #136, 1000.000000000000000 ) ;
#2 = ORIENTED_EDGE ( 'NONE', *, *, #190, .T. ) ;
#3 = APPROVAL_ROLE ( '' ) ;
#4 =( LENGTH_UNIT ( ) NAMED_UNIT ( * ) SI_UNIT ( .MILLI., .METRE. ) );
#5 = DIRECTION ( 'NONE',  ( -1.387778780781445429E-16, 1.000000000000000000, 0.0000000000000000000 ) ) ;
#6 = VECTOR ( 'NONE', #175, 1000.000000000000000 ) ;
#7 = PERSON_AND_ORGANIZATION_ROLE ( 'design_supplier' ) ;
#8 = DIRECTION ( 'NONE',  ( 1.000000000000000000, 0.0000000000000000000, 0.0000000000000000000 ) ) ;
#9 = PERSON_AND_ORGANIZATION ( #236, #197 ) ;
#10 = ORIENTED_EDGE ( 'NONE', *, *, #106, .T. ) ;
#11 = DIRECTION ( 'NONE',  ( 0.0000000000000000000, -0.0000000000000000000, 1.000000000000000000 ) ) ;
#12 = DIRECTION ( 'NONE',  ( 0.0000000000000000000, -0.0000000000000000000, 1.000000000000000000 ) ) ;
#13 = LINE ( 'NONE', #196, #148 ) ;
#14 = PRODUCT_DEFINITION ( 'UNKNOWN', '', #137, #178 ) ;
#15 = CARTESIAN_POINT ( 'NONE',  ( -12.49999999999999467, 12.49999999999999467, 3.000000000000000000 ) ) ;
#16 = VECTOR ( 'NONE', #176, 1000.000000000000000 ) ;
#17 = DATE_AND_TIME ( #232, #48 ) ;
#18 = VECTOR ( 'NONE', #74, 1000.000000000000000 ) ;
#19 = EDGE_CURVE ( 'NONE', #38, #205, #200, .T. ) ;
#20 =( GEOMETRIC_REPRESENTATION_CONTEXT ( 3 ) GLOBAL_UNCERTAINTY_ASSIGNED_CONTEXT ( ( #27 ) ) GLOBAL_UNIT_ASSIGNED_CONTEXT ( ( #4, #37, #21 ) ) REPRESENTATION_CONTEXT ( 'NONE', 'WORKASPACE' ) );
#21 =( NAMED_UNIT ( * ) SI_UNIT ( $, .STERADIAN. ) SOLID_ANGLE_UNIT ( ) );
#22 = ADVANCED_FACE ( 'NONE', ( #45 ), #70, .F. ) ;
#23 = MECHANICAL_CONTEXT ( 'NONE', #43, 'mechanical' ) ;
#24 = PERSON_AND_ORGANIZATION_ROLE ( 'design_owner' ) ;
#25 = CC_DESIGN_PERSON_AND_ORGANIZATION_ASSIGNMENT ( #163, #152, ( #137 ) ) ;
#26 = CARTESIAN_POINT ( 'NONE',  ( 12.50000000000000533, -12.50000000000000178, -3.000000000000000000 ) ) ;
#27 = UNCERTAINTY_MEASURE_WITH_UNIT (LENGTH_MEASURE( 1.000000000000000082E-05 ), #4, 'distance_accuracy_value', 'NONE');
#28 = FACE_OUTER_BOUND ( 'NONE', #54, .T. ) ;
#29 = CLOSED_SHELL ( 'NONE', ( #22, #192, #170, #187, #97, #30 ) ) ;
#30 = ADVANCED_FACE ( 'NONE', ( #80 ), #88, .F. ) ;
#31 = CARTESIAN_POINT ( 'NONE',  ( 12.50000000000000533, -12.50000000000000178, 3.000000000000000000 ) ) ;
#32 = CARTESIAN_POINT ( 'NONE',  ( 12.50000000000000533, -12.50000000000000178, -3.000000000000000000 ) ) ;
#33 = CALENDAR_DATE ( 2020, 19, 10 ) ;
#34 = VERTEX_POINT ( 'NONE', #47 ) ;
#35 = EDGE_CURVE ( 'NONE', #235, #125, #172, .T. ) ;
#36 = CALENDAR_DATE ( 2020, 19, 10 ) ;
#37 =( NAMED_UNIT ( * ) PLANE_ANGLE_UNIT ( ) SI_UNIT ( $, .RADIAN. ) );
#38 = VERTEX_POINT ( 'NONE', #119 ) ;
#39 = DATE_TIME_ROLE ( 'classification_date' ) ;
#40 = EDGE_CURVE ( 'NONE', #235, #161, #204, .T. ) ;
#41 = APPLICATION_CONTEXT ( 'configuration controlled 3d designs of mechanical parts and assemblies' ) ;
#42 = APPLICATION_PROTOCOL_DEFINITION ( 'international standard', 'config_control_design', 1994, #43 ) ;
#43 = APPLICATION_CONTEXT ( 'configuration controlled 3d designs of mechanical parts and assemblies' ) ;
#44 = VECTOR ( 'NONE', #72, 1000.000000000000000 ) ;
#45 = FACE_OUTER_BOUND ( 'NONE', #91, .T. ) ;
#46 = SECURITY_CLASSIFICATION ( '', '', #166 ) ;
#47 = CARTESIAN_POINT ( 'NONE',  ( 12.50000000000000533, -12.50000000000000178, 3.000000000000000000 ) ) ;
#48 = LOCAL_TIME ( 11, 42, 31.00000000000000000, #93 ) ;
#49 = EDGE_LOOP ( 'NONE', ( #132, #66, #78, #76 ) ) ;
#50 = CARTESIAN_POINT ( 'NONE',  ( -12.49999999999999467, -12.50000000000000533, 3.000000000000000000 ) ) ;
#51 = CARTESIAN_POINT ( 'NONE',  ( -12.49999999999999467, -12.50000000000000533, -3.000000000000000000 ) ) ;
#52 = PLANE ( 'NONE',  #162 ) ;
#53 = CARTESIAN_POINT ( 'NONE',  ( 0.0000000000000000000, 0.0000000000000000000, -3.000000000000000000 ) ) ;
#54 = EDGE_LOOP ( 'NONE', ( #96, #118, #195, #10 ) ) ;
#55 = CC_DESIGN_PERSON_AND_ORGANIZATION_ASSIGNMENT ( #95, #24, ( #109 ) ) ;
#56 = EDGE_CURVE ( 'NONE', #125, #173, #13, .T. ) ;
#57 = LINE ( 'NONE', #31, #1 ) ;
#58 = ORIENTED_EDGE ( 'NONE', *, *, #40, .F. ) ;
#59 = CC_DESIGN_SECURITY_CLASSIFICATION ( #46, ( #137 ) ) ;
#60 = CARTESIAN_POINT ( 'NONE',  ( 12.50000000000000533, 12.49999999999999822, -3.000000000000000000 ) ) ;
#61 = APPROVAL_ROLE ( '' ) ;
#62 = CARTESIAN_POINT ( 'NONE',  ( 12.50000000000000533, 12.49999999999999822, -3.000000000000000000 ) ) ;
#63 = ORIENTED_EDGE ( 'NONE', *, *, #35, .F. ) ;
#64 = APPROVAL_ROLE ( '' ) ;
#65 = EDGE_CURVE ( 'NONE', #34, #38, #177, .T. ) ;
#66 = ORIENTED_EDGE ( 'NONE', *, *, #19, .F. ) ;
#67 = DIRECTION ( 'NONE',  ( -0.0000000000000000000, -0.0000000000000000000, -1.000000000000000000 ) ) ;
#68 = CARTESIAN_POINT ( 'NONE',  ( 12.50000000000000533, -12.50000000000000178, -3.000000000000000000 ) ) ;
#69 = CC_DESIGN_APPROVAL ( #220, ( #137 ) ) ;
#70 = PLANE ( 'NONE',  #223 ) ;
#71 = ORIENTED_EDGE ( 'NONE', *, *, #56, .F. ) ;
#72 = DIRECTION ( 'NONE',  ( -0.0000000000000000000, -1.000000000000000000, -0.0000000000000000000 ) ) ;
#73 = EDGE_CURVE ( 'NONE', #34, #202, #184, .T. ) ;
#74 = DIRECTION ( 'NONE',  ( -0.0000000000000000000, -0.0000000000000000000, -1.000000000000000000 ) ) ;
#75 = LOCAL_TIME ( 11, 42, 31.00000000000000000, #134 ) ;
#76 = ORIENTED_EDGE ( 'NONE', *, *, #73, .T. ) ;
#77 = DATE_AND_TIME ( #33, #117 ) ;
#78 = ORIENTED_EDGE ( 'NONE', *, *, #65, .F. ) ;
#79 = CARTESIAN_POINT ( 'NONE',  ( 12.50000000000000533, -12.50000000000000178, 3.000000000000000000 ) ) ;
#80 = FACE_OUTER_BOUND ( 'NONE', #142, .T. ) ;
#81 = VECTOR ( 'NONE', #138, 1000.000000000000000 ) ;
#82 = ORIENTED_EDGE ( 'NONE', *, *, #40, .T. ) ;
#83 = DATE_TIME_ROLE ( 'creation_date' ) ;
#84 = AXIS2_PLACEMENT_3D ( 'NONE', #186, #149, #165 ) ;
#85 = CALENDAR_DATE ( 2020, 19, 10 ) ;
#86 = EDGE_LOOP ( 'NONE', ( #114, #122, #135, #183 ) ) ;
#87 = DIRECTION ( 'NONE',  ( -0.0000000000000000000, -1.000000000000000000, -0.0000000000000000000 ) ) ;
#88 = PLANE ( 'NONE',  #126 ) ;
#89 = DIRECTION ( 'NONE',  ( 0.0000000000000000000, 1.000000000000000000, 0.0000000000000000000 ) ) ;
#90 = DATE_AND_TIME ( #36, #75 ) ;
#91 = EDGE_LOOP ( 'NONE', ( #147, #71, #63, #82 ) ) ;
#92 = EDGE_CURVE ( 'NONE', #202, #205, #160, .T. ) ;
#93 = COORDINATED_UNIVERSAL_TIME_OFFSET ( 5, 0, .BEHIND. ) ;
#94 = AXIS2_PLACEMENT_3D ( 'NONE', #130, #167, #224 ) ;
#95 = PERSON_AND_ORGANIZATION ( #236, #197 ) ;
#96 = ORIENTED_EDGE ( 'NONE', *, *, #35, .T. ) ;
#97 = ADVANCED_FACE ( 'NONE', ( #28 ), #210, .T. ) ;
#98 = PRODUCT_DEFINITION_SHAPE ( 'NONE', 'NONE',  #14 ) ;
#99 = EDGE_CURVE ( 'NONE', #125, #34, #57, .T. ) ;
#100 = PLANE ( 'NONE',  #120 ) ;
#101 = VECTOR ( 'NONE', #89, 1000.000000000000000 ) ;
#102 = ORIENTED_EDGE ( 'NONE', *, *, #106, .F. ) ;
#103 = DIRECTION ( 'NONE',  ( 1.000000000000000000, 0.0000000000000000000, -0.0000000000000000000 ) ) ;
#104 = CARTESIAN_POINT ( 'NONE',  ( -12.49999999999999467, 12.49999999999999467, -3.000000000000000000 ) ) ;
#105 = DATE_AND_TIME ( #227, #154 ) ;
#106 = EDGE_CURVE ( 'NONE', #38, #235, #180, .T. ) ;
#107 = EDGE_LOOP ( 'NONE', ( #2, #58, #102, #164 ) ) ;
#108 = ADVANCED_BREP_SHAPE_REPRESENTATION ( 'Web Model 37128MX_15764', ( #112, #84 ), #20 ) ;
#109 = PRODUCT ( 'Web Model 37128MX_15764', 'Web Model 37128MX_15764', '', ( #23 ) ) ;
#110 = VECTOR ( 'NONE', #129, 1000.000000000000000 ) ;
#111 = APPROVAL_STATUS ( 'not_yet_approved' ) ;
#112 = MANIFOLD_SOLID_BREP ( 'Boss-Extrude1', #29 ) ;
#113 = FACE_OUTER_BOUND ( 'NONE', #86, .T. ) ;
#114 = ORIENTED_EDGE ( 'NONE', *, *, #115, .T. ) ;
#115 = EDGE_CURVE ( 'NONE', #173, #202, #123, .T. ) ;
#116 = CARTESIAN_POINT ( 'NONE',  ( 0.0000000000000000000, 0.0000000000000000000, 3.000000000000000000 ) ) ;
#117 = LOCAL_TIME ( 11, 42, 31.00000000000000000, #211 ) ;
#118 = ORIENTED_EDGE ( 'NONE', *, *, #99, .T. ) ;
#119 = CARTESIAN_POINT ( 'NONE',  ( 12.50000000000000533, 12.49999999999999822, 3.000000000000000000 ) ) ;
#120 = AXIS2_PLACEMENT_3D ( 'NONE', #79, #5, #150 ) ;
#121 = PERSON_AND_ORGANIZATION ( #236, #197 ) ;
#122 = ORIENTED_EDGE ( 'NONE', *, *, #73, .F. ) ;
#123 = LINE ( 'NONE', #32, #221 ) ;
#124 = VECTOR ( 'NONE', #139, 1000.000000000000000 ) ;
#125 = VERTEX_POINT ( 'NONE', #50 ) ;
#126 = AXIS2_PLACEMENT_3D ( 'NONE', #53, #12, #230 ) ;
#127 = LINE ( 'NONE', #60, #110 ) ;
#128 = PLANE ( 'NONE',  #94 ) ;
#129 = DIRECTION ( 'NONE',  ( -1.000000000000000000, -1.387778780781445676E-16, 0.0000000000000000000 ) ) ;
#130 = CARTESIAN_POINT ( 'NONE',  ( 12.50000000000000533, 12.49999999999999822, 3.000000000000000000 ) ) ;
#131 = APPROVAL_PERSON_ORGANIZATION ( #121, #220, #64 ) ;
#132 = ORIENTED_EDGE ( 'NONE', *, *, #92, .T. ) ;
#133 = CARTESIAN_POINT ( 'NONE',  ( 12.50000000000000533, 12.49999999999999822, 3.000000000000000000 ) ) ;
#134 = COORDINATED_UNIVERSAL_TIME_OFFSET ( 5, 0, .BEHIND. ) ;
#135 = ORIENTED_EDGE ( 'NONE', *, *, #99, .F. ) ;
#136 = DIRECTION ( 'NONE',  ( 1.000000000000000000, 1.387778780781445676E-16, -0.0000000000000000000 ) ) ;
#137 = PRODUCT_DEFINITION_FORMATION_WITH_SPECIFIED_SOURCE ( 'ANY', '', #109, .NOT_KNOWN. ) ;
#138 = DIRECTION ( 'NONE',  ( 0.0000000000000000000, 1.000000000000000000, 0.0000000000000000000 ) ) ;
#139 = DIRECTION ( 'NONE',  ( -0.0000000000000000000, -0.0000000000000000000, -1.000000000000000000 ) ) ;
#140 = APPROVAL_DATE_TIME ( #191, #145 ) ;
#141 = LOCAL_TIME ( 11, 42, 31.00000000000000000, #144 ) ;
#142 = EDGE_LOOP ( 'NONE', ( #217, #212, #185, #233 ) ) ;
#143 = APPROVAL ( #153, 'UNSPECIFIED' ) ;
#144 = COORDINATED_UNIVERSAL_TIME_OFFSET ( 5, 0, .BEHIND. ) ;
#145 = APPROVAL ( #111, 'UNSPECIFIED' ) ;
#146 = APPROVAL_PERSON_ORGANIZATION ( #182, #145, #3 ) ;
#147 = ORIENTED_EDGE ( 'NONE', *, *, #151, .T. ) ;
#148 = VECTOR ( 'NONE', #67, 1000.000000000000000 ) ;
#149 = DIRECTION ( 'NONE',  ( 0.0000000000000000000, 0.0000000000000000000, 1.000000000000000000 ) ) ;
#150 = DIRECTION ( 'NONE',  ( -1.000000000000000000, -1.387778780781445429E-16, 0.0000000000000000000 ) ) ;
#151 = EDGE_CURVE ( 'NONE', #161, #173, #194, .T. ) ;
#152 = PERSON_AND_ORGANIZATION_ROLE ( 'creator' ) ;
#153 = APPROVAL_STATUS ( 'not_yet_approved' ) ;
#154 = LOCAL_TIME ( 11, 42, 31.00000000000000000, #234 ) ;
#155 = CARTESIAN_POINT ( 'NONE',  ( 12.50000000000000533, 12.49999999999999822, 3.000000000000000000 ) ) ;
#156 = DIRECTION ( 'NONE',  ( 1.000000000000000000, 1.387778780781445676E-16, -0.0000000000000000000 ) ) ;
#157 = VECTOR ( 'NONE', #87, 1000.000000000000000 ) ;
#158 = CC_DESIGN_PERSON_AND_ORGANIZATION_ASSIGNMENT ( #169, #222, ( #14 ) ) ;
#159 = DIRECTION ( 'NONE',  ( 0.0000000000000000000, 0.0000000000000000000, 1.000000000000000000 ) ) ;
#160 = LINE ( 'NONE', #68, #81 ) ;
#161 = VERTEX_POINT ( 'NONE', #104 ) ;
#162 = AXIS2_PLACEMENT_3D ( 'NONE', #231, #215, #159 ) ;
#163 = PERSON_AND_ORGANIZATION ( #236, #197 ) ;
#164 = ORIENTED_EDGE ( 'NONE', *, *, #19, .T. ) ;
#165 = DIRECTION ( 'NONE',  ( 1.000000000000000000, 0.0000000000000000000, 0.0000000000000000000 ) ) ;
#166 = SECURITY_CLASSIFICATION_LEVEL ( 'unclassified' ) ;
#167 = DIRECTION ( 'NONE',  ( 1.387778780781445429E-16, -1.000000000000000000, 0.0000000000000000000 ) ) ;
#168 = CC_DESIGN_APPROVAL ( #145, ( #14 ) ) ;
#169 = PERSON_AND_ORGANIZATION ( #236, #197 ) ;
#170 = ADVANCED_FACE ( 'NONE', ( #209 ), #52, .F. ) ;
#171 = CARTESIAN_POINT ( 'NONE',  ( -12.49999999999999467, -12.50000000000000533, -3.000000000000000000 ) ) ;
#172 = LINE ( 'NONE', #193, #157 ) ;
#173 = VERTEX_POINT ( 'NONE', #51 ) ;
#174 = DIRECTION ( 'NONE',  ( 0.0000000000000000000, 0.0000000000000000000, -1.000000000000000000 ) ) ;
#175 = DIRECTION ( 'NONE',  ( -1.000000000000000000, -1.387778780781445676E-16, 0.0000000000000000000 ) ) ;
#176 = DIRECTION ( 'NONE',  ( -0.0000000000000000000, -0.0000000000000000000, -1.000000000000000000 ) ) ;
#177 = LINE ( 'NONE', #229, #101 ) ;
#178 = DESIGN_CONTEXT ( 'detailed design', #41, 'design' ) ;
#179 = PRODUCT_RELATED_PRODUCT_CATEGORY ( 'detail', '', ( #109 ) ) ;
#180 = LINE ( 'NONE', #133, #6 ) ;
#181 = CC_DESIGN_DATE_AND_TIME_ASSIGNMENT ( #17, #83, ( #14 ) ) ;
#182 = PERSON_AND_ORGANIZATION ( #236, #197 ) ;
#183 = ORIENTED_EDGE ( 'NONE', *, *, #56, .T. ) ;
#184 = LINE ( 'NONE', #226, #124 ) ;
#185 = ORIENTED_EDGE ( 'NONE', *, *, #92, .F. ) ;
#186 = CARTESIAN_POINT ( 'NONE',  ( 0.0000000000000000000, 0.0000000000000000000, 0.0000000000000000000 ) ) ;
#187 = ADVANCED_FACE ( 'NONE', ( #216 ), #128, .F. ) ;
#188 = APPROVAL_STATUS ( 'not_yet_approved' ) ;
#189 = APPLICATION_PROTOCOL_DEFINITION ( 'international standard', 'config_control_design', 1994, #41 ) ;
#190 = EDGE_CURVE ( 'NONE', #205, #161, #127, .T. ) ;
#191 = DATE_AND_TIME ( #85, #141 ) ;
#192 = ADVANCED_FACE ( 'NONE', ( #113 ), #100, .F. ) ;
#193 = CARTESIAN_POINT ( 'NONE',  ( -12.49999999999999467, -12.50000000000000533, 3.000000000000000000 ) ) ;
#194 = LINE ( 'NONE', #171, #44 ) ;
#195 = ORIENTED_EDGE ( 'NONE', *, *, #65, .T. ) ;
#196 = CARTESIAN_POINT ( 'NONE',  ( -12.49999999999999467, -12.50000000000000533, 3.000000000000000000 ) ) ;
#197 = ORGANIZATION ( 'UNSPECIFIED', 'UNSPECIFIED', '' ) ;
#198 = CC_DESIGN_PERSON_AND_ORGANIZATION_ASSIGNMENT ( #201, #206, ( #46 ) ) ;
#199 = APPROVAL_PERSON_ORGANIZATION ( #9, #143, #61 ) ;
#200 = LINE ( 'NONE', #155, #18 ) ;
#201 = PERSON_AND_ORGANIZATION ( #236, #197 ) ;
#202 = VERTEX_POINT ( 'NONE', #26 ) ;
#203 = AXIS2_PLACEMENT_3D ( 'NONE', #116, #11, #103 ) ;
#204 = LINE ( 'NONE', #15, #16 ) ;
#205 = VERTEX_POINT ( 'NONE', #62 ) ;
#206 = PERSON_AND_ORGANIZATION_ROLE ( 'classification_officer' ) ;
#207 = CARTESIAN_POINT ( 'NONE',  ( -12.49999999999999467, 12.49999999999999467, 3.000000000000000000 ) ) ;
#208 = CC_DESIGN_DATE_AND_TIME_ASSIGNMENT ( #105, #39, ( #46 ) ) ;
#209 = FACE_OUTER_BOUND ( 'NONE', #49, .T. ) ;
#210 = PLANE ( 'NONE',  #203 ) ;
#211 = COORDINATED_UNIVERSAL_TIME_OFFSET ( 5, 0, .BEHIND. ) ;
#212 = ORIENTED_EDGE ( 'NONE', *, *, #190, .F. ) ;
#213 = CC_DESIGN_PERSON_AND_ORGANIZATION_ASSIGNMENT ( #219, #7, ( #137 ) ) ;
#214 = CARTESIAN_POINT ( 'NONE',  ( -12.49999999999999467, -12.50000000000000533, 3.000000000000000000 ) ) ;
#215 = DIRECTION ( 'NONE',  ( -1.000000000000000000, 0.0000000000000000000, 0.0000000000000000000 ) ) ;
#216 = FACE_OUTER_BOUND ( 'NONE', #107, .T. ) ;
#217 = ORIENTED_EDGE ( 'NONE', *, *, #151, .F. ) ;
#218 = APPROVAL_DATE_TIME ( #77, #143 ) ;
#219 = PERSON_AND_ORGANIZATION ( #236, #197 ) ;
#220 = APPROVAL ( #188, 'UNSPECIFIED' ) ;
#221 = VECTOR ( 'NONE', #156, 1000.000000000000000 ) ;
#222 = PERSON_AND_ORGANIZATION_ROLE ( 'creator' ) ;
#223 = AXIS2_PLACEMENT_3D ( 'NONE', #214, #8, #174 ) ;
#224 = DIRECTION ( 'NONE',  ( 1.000000000000000000, 1.387778780781445429E-16, 0.0000000000000000000 ) ) ;
#225 = APPROVAL_DATE_TIME ( #90, #220 ) ;
#226 = CARTESIAN_POINT ( 'NONE',  ( 12.50000000000000533, -12.50000000000000178, 3.000000000000000000 ) ) ;
#227 = CALENDAR_DATE ( 2020, 19, 10 ) ;
#228 = CC_DESIGN_APPROVAL ( #143, ( #46 ) ) ;
#229 = CARTESIAN_POINT ( 'NONE',  ( 12.50000000000000533, -12.50000000000000178, 3.000000000000000000 ) ) ;
#230 = DIRECTION ( 'NONE',  ( 1.000000000000000000, 0.0000000000000000000, -0.0000000000000000000 ) ) ;
#231 = CARTESIAN_POINT ( 'NONE',  ( 12.50000000000000533, -12.50000000000000178, 3.000000000000000000 ) ) ;
#232 = CALENDAR_DATE ( 2020, 19, 10 ) ;
#233 = ORIENTED_EDGE ( 'NONE', *, *, #115, .F. ) ;
#234 = COORDINATED_UNIVERSAL_TIME_OFFSET ( 5, 0, .BEHIND. ) ;
#235 = VERTEX_POINT ( 'NONE', #207 ) ;
#236 = PERSON ( 'UNSPECIFIED', 'UNSPECIFIED', 'UNSPECIFIED', ('UNSPECIFIED'), ('UNSPECIFIED'), ('UNSPECIFIED') ) ;
#237 = SHAPE_DEFINITION_REPRESENTATION ( #98, #108 ) ;
ENDSEC;
END-ISO-10303-21;
