ISO-10303-21;
HEADER;
FILE_DESCRIPTION (( 'STEP AP203' ),
    '1' );
FILE_NAME ('Web Model 47682_47682.step',
    '2020-10-07T17:24:15',
    ( '' ),
    ( '' ),
    'SwSTEP 2.0',
    'SolidWorks 2018',
    '' );
FILE_SCHEMA (( 'CONFIG_CONTROL_DESIGN' ));
ENDSEC;

DATA;
#1 = PRODUCT_RELATED_PRODUCT_CATEGORY ( 'detail', '', ( #31 ) ) ;
#2 = EDGE_CURVE ( 'NONE', #69, #168, #137, .T. ) ;
#3 = APPROVAL_ROLE ( '' ) ;
#4 =( GEOMETRIC_REPRESENTATION_CONTEXT ( 3 ) GLOBAL_UNCERTAINTY_ASSIGNED_CONTEXT ( ( #150 ) ) GLOBAL_UNIT_ASSIGNED_CONTEXT ( ( #76, #63, #5 ) ) REPRESENTATION_CONTEXT ( 'NONE', 'WORKASPACE' ) );
#5 =( NAMED_UNIT ( * ) SI_UNIT ( $, .STERADIAN. ) SOLID_ANGLE_UNIT ( ) );
#6 = PERSON_AND_ORGANIZATION ( #139, #49 ) ;
#7 = PERSON_AND_ORGANIZATION ( #139, #49 ) ;
#8 = CARTESIAN_POINT ( 'NONE',  ( -6.250000000000000000, 0.0000000000000000000, 1.000000000000000000 ) ) ;
#9 = DIRECTION ( 'NONE',  ( 0.0000000000000000000, 0.0000000000000000000, 1.000000000000000000 ) ) ;
#10 = ADVANCED_FACE ( 'NONE', ( #120 ), #114, .T. ) ;
#11 = DIRECTION ( 'NONE',  ( 0.0000000000000000000, 0.0000000000000000000, 1.000000000000000000 ) ) ;
#12 = ORIENTED_EDGE ( 'NONE', *, *, #38, .T. ) ;
#13 = AXIS2_PLACEMENT_3D ( 'NONE', #50, #89, #41 ) ;
#14 = APPROVAL_PERSON_ORGANIZATION ( #85, #67, #3 ) ;
#15 = VECTOR ( 'NONE', #75, 1000.000000000000000 ) ;
#16 = DIRECTION ( 'NONE',  ( 1.000000000000000000, 0.0000000000000000000, 0.0000000000000000000 ) ) ;
#17 = CARTESIAN_POINT ( 'NONE',  ( 6.250000000000000000, 7.654042494670957606E-16, -1.000000000000000000 ) ) ;
#18 = ORIENTED_EDGE ( 'NONE', *, *, #38, .F. ) ;
#19 = CARTESIAN_POINT ( 'NONE',  ( 0.0000000000000000000, 0.0000000000000000000, 0.0000000000000000000 ) ) ;
#20 = DIRECTION ( 'NONE',  ( -1.000000000000000000, 0.0000000000000000000, 0.0000000000000000000 ) ) ;
#21 = LOCAL_TIME ( 13, 24, 15.00000000000000000, #104 ) ;
#22 = CC_DESIGN_DATE_AND_TIME_ASSIGNMENT ( #47, #32, ( #115 ) ) ;
#23 = EDGE_CURVE ( 'NONE', #69, #131, #27, .T. ) ;
#24 = ORIENTED_EDGE ( 'NONE', *, *, #2, .T. ) ;
#25 = APPROVAL_STATUS ( 'not_yet_approved' ) ;
#26 = AXIS2_PLACEMENT_3D ( 'NONE', #151, #51, #20 ) ;
#27 = LINE ( 'NONE', #8, #141 ) ;
#28 = ADVANCED_BREP_SHAPE_REPRESENTATION ( 'Web Model 47682_47682', ( #110, #68 ), #4 ) ;
#29 = APPROVAL ( #25, 'UNSPECIFIED' ) ;
#30 = CC_DESIGN_APPROVAL ( #67, ( #115 ) ) ;
#31 = PRODUCT ( 'Web Model 47682_47682', 'Web Model 47682_47682', '', ( #169 ) ) ;
#32 = DATE_TIME_ROLE ( 'classification_date' ) ;
#33 = FACE_OUTER_BOUND ( 'NONE', #83, .T. ) ;
#34 = APPROVAL_STATUS ( 'not_yet_approved' ) ;
#35 = PRODUCT_DEFINITION ( 'UNKNOWN', '', #146, #87 ) ;
#36 = CC_DESIGN_DATE_AND_TIME_ASSIGNMENT ( #55, #82, ( #35 ) ) ;
#37 = ADVANCED_FACE ( 'NONE', ( #33 ), #91, .T. ) ;
#38 = EDGE_CURVE ( 'NONE', #168, #69, #100, .T. ) ;
#39 = CALENDAR_DATE ( 2020, 7, 10 ) ;
#40 = CIRCLE ( 'NONE', #13, 6.250000000000000000 ) ;
#41 = DIRECTION ( 'NONE',  ( 1.000000000000000000, 0.0000000000000000000, 0.0000000000000000000 ) ) ;
#42 = DIRECTION ( 'NONE',  ( -1.000000000000000000, 0.0000000000000000000, 0.0000000000000000000 ) ) ;
#43 = LOCAL_TIME ( 13, 24, 15.00000000000000000, #171 ) ;
#44 = EDGE_CURVE ( 'NONE', #131, #106, #40, .T. ) ;
#45 = SECURITY_CLASSIFICATION_LEVEL ( 'unclassified' ) ;
#46 = PRODUCT_DEFINITION_SHAPE ( 'NONE', 'NONE',  #35 ) ;
#47 = DATE_AND_TIME ( #155, #70 ) ;
#48 = ORIENTED_EDGE ( 'NONE', *, *, #23, .F. ) ;
#49 = ORGANIZATION ( 'UNSPECIFIED', 'UNSPECIFIED', '' ) ;
#50 = CARTESIAN_POINT ( 'NONE',  ( 0.0000000000000000000, 0.0000000000000000000, -1.000000000000000000 ) ) ;
#51 = DIRECTION ( 'NONE',  ( -0.0000000000000000000, -0.0000000000000000000, -1.000000000000000000 ) ) ;
#52 = ORIENTED_EDGE ( 'NONE', *, *, #44, .F. ) ;
#53 = PERSON_AND_ORGANIZATION ( #139, #49 ) ;
#54 = APPLICATION_CONTEXT ( 'configuration controlled 3d designs of mechanical parts and assemblies' ) ;
#55 = DATE_AND_TIME ( #125, #43 ) ;
#56 = FACE_OUTER_BOUND ( 'NONE', #145, .T. ) ;
#57 = APPROVAL_DATE_TIME ( #165, #135 ) ;
#58 = DIRECTION ( 'NONE',  ( 0.0000000000000000000, 0.0000000000000000000, 1.000000000000000000 ) ) ;
#59 = DIRECTION ( 'NONE',  ( -0.0000000000000000000, -0.0000000000000000000, -1.000000000000000000 ) ) ;
#60 = PLANE ( 'NONE',  #71 ) ;
#61 = CYLINDRICAL_SURFACE ( 'NONE', #26, 6.250000000000000000 ) ;
#62 = APPLICATION_PROTOCOL_DEFINITION ( 'international standard', 'config_control_design', 1994, #164 ) ;
#63 =( NAMED_UNIT ( * ) PLANE_ANGLE_UNIT ( ) SI_UNIT ( $, .RADIAN. ) );
#64 = ORIENTED_EDGE ( 'NONE', *, *, #79, .F. ) ;
#65 = AXIS2_PLACEMENT_3D ( 'NONE', #99, #108, #98 ) ;
#66 = CALENDAR_DATE ( 2020, 7, 10 ) ;
#67 = APPROVAL ( #158, 'UNSPECIFIED' ) ;
#68 = AXIS2_PLACEMENT_3D ( 'NONE', #19, #154, #78 ) ;
#69 = VERTEX_POINT ( 'NONE', #129 ) ;
#70 = LOCAL_TIME ( 13, 24, 15.00000000000000000, #140 ) ;
#71 = AXIS2_PLACEMENT_3D ( 'NONE', #142, #72, #111 ) ;
#72 = DIRECTION ( 'NONE',  ( 0.0000000000000000000, 0.0000000000000000000, 1.000000000000000000 ) ) ;
#73 = PERSON_AND_ORGANIZATION ( #139, #49 ) ;
#74 = DIRECTION ( 'NONE',  ( 1.000000000000000000, 0.0000000000000000000, -0.0000000000000000000 ) ) ;
#75 = DIRECTION ( 'NONE',  ( -0.0000000000000000000, -0.0000000000000000000, -1.000000000000000000 ) ) ;
#76 =( LENGTH_UNIT ( ) NAMED_UNIT ( * ) SI_UNIT ( .MILLI., .METRE. ) );
#77 = DATE_AND_TIME ( #39, #90 ) ;
#78 = DIRECTION ( 'NONE',  ( 1.000000000000000000, 0.0000000000000000000, 0.0000000000000000000 ) ) ;
#79 = EDGE_CURVE ( 'NONE', #106, #131, #86, .T. ) ;
#80 = ORIENTED_EDGE ( 'NONE', *, *, #79, .T. ) ;
#81 = CC_DESIGN_PERSON_AND_ORGANIZATION_ASSIGNMENT ( #117, #102, ( #146 ) ) ;
#82 = DATE_TIME_ROLE ( 'creation_date' ) ;
#83 = EDGE_LOOP ( 'NONE', ( #119, #138, #123, #109 ) ) ;
#84 = ORIENTED_EDGE ( 'NONE', *, *, #156, .T. ) ;
#85 = PERSON_AND_ORGANIZATION ( #139, #49 ) ;
#86 = CIRCLE ( 'NONE', #175, 6.250000000000000000 ) ;
#87 = DESIGN_CONTEXT ( 'detailed design', #54, 'design' ) ;
#88 = LINE ( 'NONE', #94, #15 ) ;
#89 = DIRECTION ( 'NONE',  ( 0.0000000000000000000, 0.0000000000000000000, 1.000000000000000000 ) ) ;
#90 = LOCAL_TIME ( 13, 24, 15.00000000000000000, #113 ) ;
#91 = CYLINDRICAL_SURFACE ( 'NONE', #133, 6.250000000000000000 ) ;
#92 = PERSON_AND_ORGANIZATION ( #139, #49 ) ;
#93 = PERSON_AND_ORGANIZATION_ROLE ( 'creator' ) ;
#94 = CARTESIAN_POINT ( 'NONE',  ( 6.250000000000000000, 7.654042494670957606E-16, 1.000000000000000000 ) ) ;
#95 = DIRECTION ( 'NONE',  ( -0.0000000000000000000, -0.0000000000000000000, -1.000000000000000000 ) ) ;
#96 = ADVANCED_FACE ( 'NONE', ( #56 ), #61, .T. ) ;
#97 = DIRECTION ( 'NONE',  ( 1.000000000000000000, 0.0000000000000000000, 0.0000000000000000000 ) ) ;
#98 = DIRECTION ( 'NONE',  ( 1.000000000000000000, 0.0000000000000000000, 0.0000000000000000000 ) ) ;
#99 = CARTESIAN_POINT ( 'NONE',  ( 0.0000000000000000000, 0.0000000000000000000, 1.000000000000000000 ) ) ;
#100 = CIRCLE ( 'NONE', #159, 6.250000000000000000 ) ;
#101 = CC_DESIGN_PERSON_AND_ORGANIZATION_ASSIGNMENT ( #7, #132, ( #31 ) ) ;
#102 = PERSON_AND_ORGANIZATION_ROLE ( 'design_supplier' ) ;
#103 = CC_DESIGN_APPROVAL ( #29, ( #146 ) ) ;
#104 = COORDINATED_UNIVERSAL_TIME_OFFSET ( 5, 0, .BEHIND. ) ;
#105 = APPROVAL_DATE_TIME ( #77, #67 ) ;
#106 = VERTEX_POINT ( 'NONE', #17 ) ;
#107 = CC_DESIGN_PERSON_AND_ORGANIZATION_ASSIGNMENT ( #73, #124, ( #35 ) ) ;
#108 = DIRECTION ( 'NONE',  ( 0.0000000000000000000, 0.0000000000000000000, 1.000000000000000000 ) ) ;
#109 = ORIENTED_EDGE ( 'NONE', *, *, #44, .T. ) ;
#110 = MANIFOLD_SOLID_BREP ( 'Boss-Extrude1', #161 ) ;
#111 = DIRECTION ( 'NONE',  ( 1.000000000000000000, 0.0000000000000000000, -0.0000000000000000000 ) ) ;
#112 = CARTESIAN_POINT ( 'NONE',  ( 0.0000000000000000000, 0.0000000000000000000, 1.000000000000000000 ) ) ;
#113 = COORDINATED_UNIVERSAL_TIME_OFFSET ( 5, 0, .BEHIND. ) ;
#114 = PLANE ( 'NONE',  #116 ) ;
#115 = SECURITY_CLASSIFICATION ( '', '', #45 ) ;
#116 = AXIS2_PLACEMENT_3D ( 'NONE', #167, #11, #74 ) ;
#117 = PERSON_AND_ORGANIZATION ( #139, #49 ) ;
#118 = SHAPE_DEFINITION_REPRESENTATION ( #46, #28 ) ;
#119 = ORIENTED_EDGE ( 'NONE', *, *, #156, .F. ) ;
#120 = FACE_OUTER_BOUND ( 'NONE', #126, .T. ) ;
#121 = APPROVAL_ROLE ( '' ) ;
#122 = DATE_AND_TIME ( #66, #21 ) ;
#123 = ORIENTED_EDGE ( 'NONE', *, *, #23, .T. ) ;
#124 = PERSON_AND_ORGANIZATION_ROLE ( 'creator' ) ;
#125 = CALENDAR_DATE ( 2020, 7, 10 ) ;
#126 = EDGE_LOOP ( 'NONE', ( #24, #12 ) ) ;
#127 = FACE_OUTER_BOUND ( 'NONE', #148, .T. ) ;
#128 = CARTESIAN_POINT ( 'NONE',  ( 0.0000000000000000000, 0.0000000000000000000, -1.000000000000000000 ) ) ;
#129 = CARTESIAN_POINT ( 'NONE',  ( -6.250000000000000000, 0.0000000000000000000, 1.000000000000000000 ) ) ;
#130 = APPROVAL_PERSON_ORGANIZATION ( #53, #29, #121 ) ;
#131 = VERTEX_POINT ( 'NONE', #163 ) ;
#132 = PERSON_AND_ORGANIZATION_ROLE ( 'design_owner' ) ;
#133 = AXIS2_PLACEMENT_3D ( 'NONE', #152, #95, #42 ) ;
#134 = COORDINATED_UNIVERSAL_TIME_OFFSET ( 5, 0, .BEHIND. ) ;
#135 = APPROVAL ( #34, 'UNSPECIFIED' ) ;
#136 = APPROVAL_ROLE ( '' ) ;
#137 = CIRCLE ( 'NONE', #65, 6.250000000000000000 ) ;
#138 = ORIENTED_EDGE ( 'NONE', *, *, #2, .F. ) ;
#139 = PERSON ( 'UNSPECIFIED', 'UNSPECIFIED', 'UNSPECIFIED', ('UNSPECIFIED'), ('UNSPECIFIED'), ('UNSPECIFIED') ) ;
#140 = COORDINATED_UNIVERSAL_TIME_OFFSET ( 5, 0, .BEHIND. ) ;
#141 = VECTOR ( 'NONE', #59, 1000.000000000000000 ) ;
#142 = CARTESIAN_POINT ( 'NONE',  ( 0.0000000000000000000, 0.0000000000000000000, -1.000000000000000000 ) ) ;
#143 = CC_DESIGN_APPROVAL ( #135, ( #35 ) ) ;
#144 = CALENDAR_DATE ( 2020, 7, 10 ) ;
#145 = EDGE_LOOP ( 'NONE', ( #18, #84, #80, #48 ) ) ;
#146 = PRODUCT_DEFINITION_FORMATION_WITH_SPECIFIED_SOURCE ( 'ANY', '', #31, .NOT_KNOWN. ) ;
#147 = APPROVAL_DATE_TIME ( #122, #29 ) ;
#148 = EDGE_LOOP ( 'NONE', ( #52, #64 ) ) ;
#149 = PERSON_AND_ORGANIZATION ( #139, #49 ) ;
#150 = UNCERTAINTY_MEASURE_WITH_UNIT (LENGTH_MEASURE( 1.000000000000000082E-05 ), #76, 'distance_accuracy_value', 'NONE');
#151 = CARTESIAN_POINT ( 'NONE',  ( 0.0000000000000000000, 0.0000000000000000000, 1.000000000000000000 ) ) ;
#152 = CARTESIAN_POINT ( 'NONE',  ( 0.0000000000000000000, 0.0000000000000000000, 1.000000000000000000 ) ) ;
#153 = ADVANCED_FACE ( 'NONE', ( #127 ), #60, .F. ) ;
#154 = DIRECTION ( 'NONE',  ( 0.0000000000000000000, 0.0000000000000000000, 1.000000000000000000 ) ) ;
#155 = CALENDAR_DATE ( 2020, 7, 10 ) ;
#156 = EDGE_CURVE ( 'NONE', #168, #106, #88, .T. ) ;
#157 = LOCAL_TIME ( 13, 24, 15.00000000000000000, #134 ) ;
#158 = APPROVAL_STATUS ( 'not_yet_approved' ) ;
#159 = AXIS2_PLACEMENT_3D ( 'NONE', #112, #9, #16 ) ;
#160 = APPROVAL_PERSON_ORGANIZATION ( #92, #135, #136 ) ;
#161 = CLOSED_SHELL ( 'NONE', ( #96, #37, #10, #153 ) ) ;
#162 = CC_DESIGN_SECURITY_CLASSIFICATION ( #115, ( #146 ) ) ;
#163 = CARTESIAN_POINT ( 'NONE',  ( -6.250000000000000000, 0.0000000000000000000, -1.000000000000000000 ) ) ;
#164 = APPLICATION_CONTEXT ( 'configuration controlled 3d designs of mechanical parts and assemblies' ) ;
#165 = DATE_AND_TIME ( #144, #157 ) ;
#166 = CARTESIAN_POINT ( 'NONE',  ( 6.250000000000000000, 7.654042494670957606E-16, 1.000000000000000000 ) ) ;
#167 = CARTESIAN_POINT ( 'NONE',  ( 0.0000000000000000000, 0.0000000000000000000, 1.000000000000000000 ) ) ;
#168 = VERTEX_POINT ( 'NONE', #166 ) ;
#169 = MECHANICAL_CONTEXT ( 'NONE', #164, 'mechanical' ) ;
#170 = CC_DESIGN_PERSON_AND_ORGANIZATION_ASSIGNMENT ( #6, #93, ( #146 ) ) ;
#171 = COORDINATED_UNIVERSAL_TIME_OFFSET ( 5, 0, .BEHIND. ) ;
#172 = CC_DESIGN_PERSON_AND_ORGANIZATION_ASSIGNMENT ( #149, #173, ( #115 ) ) ;
#173 = PERSON_AND_ORGANIZATION_ROLE ( 'classification_officer' ) ;
#174 = APPLICATION_PROTOCOL_DEFINITION ( 'international standard', 'config_control_design', 1994, #54 ) ;
#175 = AXIS2_PLACEMENT_3D ( 'NONE', #128, #58, #97 ) ;
ENDSEC;
END-ISO-10303-21;
