ISO-10303-21;
HEADER;
FILE_DESCRIPTION (( 'STEP AP203' ),
    '1' );
FILE_NAME ('Web Model 45310_11921.step',
    '2019-01-07T15:42:29',
    ( '' ),
    ( '' ),
    'SwSTEP 2.0',
    'SolidWorks 2016',
    '' );
FILE_SCHEMA (( 'CONFIG_CONTROL_DESIGN' ));
ENDSEC;

DATA;
#1 = PERSON_AND_ORGANIZATION_ROLE ( 'creator' ) ;
#2 = CARTESIAN_POINT ( 'NONE',  ( 7.500000000000000000, 9.184850993605147900E-016, 1.000000000000000000 ) ) ;
#3 = CC_DESIGN_PERSON_AND_ORGANIZATION_ASSIGNMENT ( #141, #47, ( #72 ) ) ;
#4 = CC_DESIGN_APPROVAL ( #161, ( #146 ) ) ;
#5 = ORIENTED_EDGE ( 'NONE', *, *, #77, .F. ) ;
#6 = COORDINATED_UNIVERSAL_TIME_OFFSET ( 5, 0, .BEHIND. ) ;
#7 = DIRECTION ( 'NONE',  ( 1.000000000000000000, 0.0000000000000000000, 0.0000000000000000000 ) ) ;
#8 = DIRECTION ( 'NONE',  ( -1.000000000000000000, 0.0000000000000000000, 0.0000000000000000000 ) ) ;
#9 = CARTESIAN_POINT ( 'NONE',  ( 0.0000000000000000000, 0.0000000000000000000, 1.000000000000000000 ) ) ;
#10 = DIRECTION ( 'NONE',  ( -0.0000000000000000000, -0.0000000000000000000, -1.000000000000000000 ) ) ;
#11 = APPROVAL_DATE_TIME ( #59, #104 ) ;
#12 = VERTEX_POINT ( 'NONE', #73 ) ;
#13 = DATE_TIME_ROLE ( 'classification_date' ) ;
#14 = AXIS2_PLACEMENT_3D ( 'NONE', #9, #29, #42 ) ;
#15 =( LENGTH_UNIT ( ) NAMED_UNIT ( * ) SI_UNIT ( .MILLI., .METRE. ) );
#16 = ORIENTED_EDGE ( 'NONE', *, *, #107, .F. ) ;
#17 = FACE_OUTER_BOUND ( 'NONE', #121, .T. ) ;
#18 = APPROVAL_PERSON_ORGANIZATION ( #101, #161, #75 ) ;
#19 = ADVANCED_FACE ( 'NONE', ( #17 ), #57, .T. ) ;
#20 = DIRECTION ( 'NONE',  ( -0.0000000000000000000, -0.0000000000000000000, -1.000000000000000000 ) ) ;
#21 = APPLICATION_PROTOCOL_DEFINITION ( 'international standard', 'config_control_design', 1994, #48 ) ;
#22 = APPROVAL_STATUS ( 'not_yet_approved' ) ;
#23 = DIRECTION ( 'NONE',  ( 0.0000000000000000000, 0.0000000000000000000, 1.000000000000000000 ) ) ;
#24 = APPROVAL_DATE_TIME ( #135, #161 ) ;
#25 = ADVANCED_FACE ( 'NONE', ( #168 ), #129, .T. ) ;
#26 = AXIS2_PLACEMENT_3D ( 'NONE', #70, #170, #169 ) ;
#27 = CIRCLE ( 'NONE', #138, 7.500000000000000000 ) ;
#28 = FACE_OUTER_BOUND ( 'NONE', #166, .T. ) ;
#29 = DIRECTION ( 'NONE',  ( 0.0000000000000000000, 0.0000000000000000000, 1.000000000000000000 ) ) ;
#30 = CIRCLE ( 'NONE', #41, 7.500000000000000000 ) ;
#31 = CARTESIAN_POINT ( 'NONE',  ( 0.0000000000000000000, 0.0000000000000000000, 1.000000000000000000 ) ) ;
#32 =( NAMED_UNIT ( * ) SI_UNIT ( $, .STERADIAN. ) SOLID_ANGLE_UNIT ( ) );
#33 = VECTOR ( 'NONE', #10, 1000.000000000000000 ) ;
#34 = PERSON_AND_ORGANIZATION_ROLE ( 'classification_officer' ) ;
#35 = PERSON_AND_ORGANIZATION ( #106, #137 ) ;
#36 = ADVANCED_FACE ( 'NONE', ( #28 ), #118, .T. ) ;
#37 = EDGE_CURVE ( 'NONE', #12, #142, #150, .T. ) ;
#38 = PERSON_AND_ORGANIZATION ( #106, #137 ) ;
#39 = CALENDAR_DATE ( 2019, 7, 1 ) ;
#40 = ORIENTED_EDGE ( 'NONE', *, *, #77, .T. ) ;
#41 = AXIS2_PLACEMENT_3D ( 'NONE', #80, #23, #49 ) ;
#42 = DIRECTION ( 'NONE',  ( 1.000000000000000000, 0.0000000000000000000, 0.0000000000000000000 ) ) ;
#43 = PERSON_AND_ORGANIZATION ( #106, #137 ) ;
#44 = CARTESIAN_POINT ( 'NONE',  ( 0.0000000000000000000, 0.0000000000000000000, 1.000000000000000000 ) ) ;
#45 = PLANE ( 'NONE',  #62 ) ;
#46 = MANIFOLD_SOLID_BREP ( 'Boss-Extrude1', #65 ) ;
#47 = PERSON_AND_ORGANIZATION_ROLE ( 'design_owner' ) ;
#48 = APPLICATION_CONTEXT ( 'configuration controlled 3d designs of mechanical parts and assemblies' ) ;
#49 = DIRECTION ( 'NONE',  ( 1.000000000000000000, 0.0000000000000000000, 0.0000000000000000000 ) ) ;
#50 = CC_DESIGN_APPROVAL ( #162, ( #145 ) ) ;
#51 = CIRCLE ( 'NONE', #26, 7.500000000000000000 ) ;
#52 = ORIENTED_EDGE ( 'NONE', *, *, #37, .T. ) ;
#53 = CC_DESIGN_PERSON_AND_ORGANIZATION_ASSIGNMENT ( #93, #1, ( #145 ) ) ;
#54 = AXIS2_PLACEMENT_3D ( 'NONE', #130, #102, #8 ) ;
#55 = CC_DESIGN_DATE_AND_TIME_ASSIGNMENT ( #153, #13, ( #154 ) ) ;
#56 = DIRECTION ( 'NONE',  ( -1.000000000000000000, 0.0000000000000000000, 0.0000000000000000000 ) ) ;
#57 = CYLINDRICAL_SURFACE ( 'NONE', #117, 7.500000000000000000 ) ;
#58 = CALENDAR_DATE ( 2019, 7, 1 ) ;
#59 = DATE_AND_TIME ( #58, #136 ) ;
#60 = CARTESIAN_POINT ( 'NONE',  ( 0.0000000000000000000, 0.0000000000000000000, -1.000000000000000000 ) ) ;
#61 = CARTESIAN_POINT ( 'NONE',  ( 0.0000000000000000000, 0.0000000000000000000, 0.0000000000000000000 ) ) ;
#62 = AXIS2_PLACEMENT_3D ( 'NONE', #60, #120, #149 ) ;
#63 = APPLICATION_PROTOCOL_DEFINITION ( 'international standard', 'config_control_design', 1994, #159 ) ;
#64 = LOCAL_TIME ( 10, 42, 29.00000000000000000, #116 ) ;
#65 = CLOSED_SHELL ( 'NONE', ( #19, #25, #36, #139 ) ) ;
#66 = CC_DESIGN_SECURITY_CLASSIFICATION ( #154, ( #145 ) ) ;
#67 = LINE ( 'NONE', #88, #69 ) ;
#68 = CC_DESIGN_APPROVAL ( #104, ( #154 ) ) ;
#69 = VECTOR ( 'NONE', #87, 1000.000000000000000 ) ;
#70 = CARTESIAN_POINT ( 'NONE',  ( 0.0000000000000000000, 0.0000000000000000000, -1.000000000000000000 ) ) ;
#71 = DIRECTION ( 'NONE',  ( 0.0000000000000000000, 0.0000000000000000000, 1.000000000000000000 ) ) ;
#72 = PRODUCT ( 'Web Model 45310_11921', 'Web Model 45310_11921', '', ( #91 ) ) ;
#73 = CARTESIAN_POINT ( 'NONE',  ( 7.500000000000000000, 9.184850993605147900E-016, 1.000000000000000000 ) ) ;
#74 = COORDINATED_UNIVERSAL_TIME_OFFSET ( 5, 0, .BEHIND. ) ;
#75 = APPROVAL_ROLE ( '' ) ;
#76 = EDGE_LOOP ( 'NONE', ( #16, #175 ) ) ;
#77 = EDGE_CURVE ( 'NONE', #142, #12, #27, .T. ) ;
#78 = APPROVAL_ROLE ( '' ) ;
#79 = PRODUCT_RELATED_PRODUCT_CATEGORY ( 'detail', '', ( #72 ) ) ;
#80 = CARTESIAN_POINT ( 'NONE',  ( 0.0000000000000000000, 0.0000000000000000000, -1.000000000000000000 ) ) ;
#81 = DATE_AND_TIME ( #163, #111 ) ;
#82 = VERTEX_POINT ( 'NONE', #119 ) ;
#83 = PRODUCT_DEFINITION_SHAPE ( 'NONE', 'NONE',  #146 ) ;
#84 = CALENDAR_DATE ( 2019, 7, 1 ) ;
#85 = CALENDAR_DATE ( 2019, 7, 1 ) ;
#86 = DESIGN_CONTEXT ( 'detailed design', #48, 'design' ) ;
#87 = DIRECTION ( 'NONE',  ( -0.0000000000000000000, -0.0000000000000000000, -1.000000000000000000 ) ) ;
#88 = CARTESIAN_POINT ( 'NONE',  ( -7.500000000000000000, 0.0000000000000000000, 1.000000000000000000 ) ) ;
#89 = DIRECTION ( 'NONE',  ( 0.0000000000000000000, 0.0000000000000000000, 1.000000000000000000 ) ) ;
#90 = DIRECTION ( 'NONE',  ( 1.000000000000000000, 0.0000000000000000000, -0.0000000000000000000 ) ) ;
#91 = MECHANICAL_CONTEXT ( 'NONE', #159, 'mechanical' ) ;
#92 = APPROVAL_STATUS ( 'not_yet_approved' ) ;
#93 = PERSON_AND_ORGANIZATION ( #106, #137 ) ;
#94 = DATE_AND_TIME ( #84, #128 ) ;
#95 = ADVANCED_BREP_SHAPE_REPRESENTATION ( 'Web Model 45310_11921', ( #46, #112 ), #165 ) ;
#96 = PERSON_AND_ORGANIZATION ( #106, #137 ) ;
#97 = ORIENTED_EDGE ( 'NONE', *, *, #123, .T. ) ;
#98 = LINE ( 'NONE', #2, #33 ) ;
#99 = CC_DESIGN_DATE_AND_TIME_ASSIGNMENT ( #81, #147, ( #146 ) ) ;
#100 = PERSON_AND_ORGANIZATION ( #106, #137 ) ;
#101 = PERSON_AND_ORGANIZATION ( #106, #137 ) ;
#102 = DIRECTION ( 'NONE',  ( -0.0000000000000000000, -0.0000000000000000000, -1.000000000000000000 ) ) ;
#103 = CARTESIAN_POINT ( 'NONE',  ( 7.500000000000000000, 9.184850993605147900E-016, -1.000000000000000000 ) ) ;
#104 = APPROVAL ( #109, 'UNSPECIFIED' ) ;
#105 = PERSON_AND_ORGANIZATION_ROLE ( 'design_supplier' ) ;
#106 = PERSON ( 'UNSPECIFIED', 'UNSPECIFIED', 'UNSPECIFIED', ('UNSPECIFIED'), ('UNSPECIFIED'), ('UNSPECIFIED') ) ;
#107 = EDGE_CURVE ( 'NONE', #82, #108, #51, .T. ) ;
#108 = VERTEX_POINT ( 'NONE', #103 ) ;
#109 = APPROVAL_STATUS ( 'not_yet_approved' ) ;
#110 = EDGE_CURVE ( 'NONE', #142, #82, #67, .T. ) ;
#111 = LOCAL_TIME ( 10, 42, 29.00000000000000000, #6 ) ;
#112 = AXIS2_PLACEMENT_3D ( 'NONE', #61, #160, #134 ) ;
#113 = ORIENTED_EDGE ( 'NONE', *, *, #123, .F. ) ;
#114 = APPROVAL_PERSON_ORGANIZATION ( #38, #162, #78 ) ;
#115 = UNCERTAINTY_MEASURE_WITH_UNIT (LENGTH_MEASURE( 1.000000000000000100E-005 ), #15, 'distance_accuracy_value', 'NONE');
#116 = COORDINATED_UNIVERSAL_TIME_OFFSET ( 5, 0, .BEHIND. ) ;
#117 = AXIS2_PLACEMENT_3D ( 'NONE', #44, #20, #56 ) ;
#118 = PLANE ( 'NONE',  #167 ) ;
#119 = CARTESIAN_POINT ( 'NONE',  ( -7.500000000000000000, 0.0000000000000000000, -1.000000000000000000 ) ) ;
#120 = DIRECTION ( 'NONE',  ( 0.0000000000000000000, 0.0000000000000000000, 1.000000000000000000 ) ) ;
#121 = EDGE_LOOP ( 'NONE', ( #126, #97, #133, #151 ) ) ;
#122 = SECURITY_CLASSIFICATION_LEVEL ( 'unclassified' ) ;
#123 = EDGE_CURVE ( 'NONE', #12, #108, #98, .T. ) ;
#124 =( NAMED_UNIT ( * ) PLANE_ANGLE_UNIT ( ) SI_UNIT ( $, .RADIAN. ) );
#125 = CC_DESIGN_PERSON_AND_ORGANIZATION_ASSIGNMENT ( #96, #174, ( #146 ) ) ;
#126 = ORIENTED_EDGE ( 'NONE', *, *, #37, .F. ) ;
#127 = APPROVAL_DATE_TIME ( #94, #162 ) ;
#128 = LOCAL_TIME ( 10, 42, 29.00000000000000000, #74 ) ;
#129 = CYLINDRICAL_SURFACE ( 'NONE', #54, 7.500000000000000000 ) ;
#130 = CARTESIAN_POINT ( 'NONE',  ( 0.0000000000000000000, 0.0000000000000000000, 1.000000000000000000 ) ) ;
#131 = EDGE_CURVE ( 'NONE', #108, #82, #30, .T. ) ;
#132 = CARTESIAN_POINT ( 'NONE',  ( 0.0000000000000000000, 0.0000000000000000000, 1.000000000000000000 ) ) ;
#133 = ORIENTED_EDGE ( 'NONE', *, *, #131, .T. ) ;
#134 = DIRECTION ( 'NONE',  ( 1.000000000000000000, 0.0000000000000000000, 0.0000000000000000000 ) ) ;
#135 = DATE_AND_TIME ( #85, #172 ) ;
#136 = LOCAL_TIME ( 10, 42, 29.00000000000000000, #140 ) ;
#137 = ORGANIZATION ( 'UNSPECIFIED', 'UNSPECIFIED', '' ) ;
#138 = AXIS2_PLACEMENT_3D ( 'NONE', #132, #71, #7 ) ;
#139 = ADVANCED_FACE ( 'NONE', ( #143 ), #45, .F. ) ;
#140 = COORDINATED_UNIVERSAL_TIME_OFFSET ( 5, 0, .BEHIND. ) ;
#141 = PERSON_AND_ORGANIZATION ( #106, #137 ) ;
#142 = VERTEX_POINT ( 'NONE', #157 ) ;
#143 = FACE_OUTER_BOUND ( 'NONE', #76, .T. ) ;
#144 = APPROVAL_PERSON_ORGANIZATION ( #35, #104, #173 ) ;
#145 = PRODUCT_DEFINITION_FORMATION_WITH_SPECIFIED_SOURCE ( 'ANY', '', #72, .NOT_KNOWN. ) ;
#146 = PRODUCT_DEFINITION ( 'UNKNOWN', '', #145, #86 ) ;
#147 = DATE_TIME_ROLE ( 'creation_date' ) ;
#148 = SHAPE_DEFINITION_REPRESENTATION ( #83, #95 ) ;
#149 = DIRECTION ( 'NONE',  ( 1.000000000000000000, 0.0000000000000000000, -0.0000000000000000000 ) ) ;
#150 = CIRCLE ( 'NONE', #14, 7.500000000000000000 ) ;
#151 = ORIENTED_EDGE ( 'NONE', *, *, #110, .F. ) ;
#152 = CC_DESIGN_PERSON_AND_ORGANIZATION_ASSIGNMENT ( #43, #105, ( #145 ) ) ;
#153 = DATE_AND_TIME ( #39, #64 ) ;
#154 = SECURITY_CLASSIFICATION ( '', '', #122 ) ;
#155 = ORIENTED_EDGE ( 'NONE', *, *, #107, .T. ) ;
#156 = COORDINATED_UNIVERSAL_TIME_OFFSET ( 5, 0, .BEHIND. ) ;
#157 = CARTESIAN_POINT ( 'NONE',  ( -7.500000000000000000, 0.0000000000000000000, 1.000000000000000000 ) ) ;
#158 = ORIENTED_EDGE ( 'NONE', *, *, #110, .T. ) ;
#159 = APPLICATION_CONTEXT ( 'configuration controlled 3d designs of mechanical parts and assemblies' ) ;
#160 = DIRECTION ( 'NONE',  ( 0.0000000000000000000, 0.0000000000000000000, 1.000000000000000000 ) ) ;
#161 = APPROVAL ( #22, 'UNSPECIFIED' ) ;
#162 = APPROVAL ( #92, 'UNSPECIFIED' ) ;
#163 = CALENDAR_DATE ( 2019, 7, 1 ) ;
#164 = EDGE_LOOP ( 'NONE', ( #113, #5, #158, #155 ) ) ;
#165 =( GEOMETRIC_REPRESENTATION_CONTEXT ( 3 ) GLOBAL_UNCERTAINTY_ASSIGNED_CONTEXT ( ( #115 ) ) GLOBAL_UNIT_ASSIGNED_CONTEXT ( ( #15, #124, #32 ) ) REPRESENTATION_CONTEXT ( 'NONE', 'WORKASPACE' ) );
#166 = EDGE_LOOP ( 'NONE', ( #40, #52 ) ) ;
#167 = AXIS2_PLACEMENT_3D ( 'NONE', #31, #89, #90 ) ;
#168 = FACE_OUTER_BOUND ( 'NONE', #164, .T. ) ;
#169 = DIRECTION ( 'NONE',  ( 1.000000000000000000, 0.0000000000000000000, 0.0000000000000000000 ) ) ;
#170 = DIRECTION ( 'NONE',  ( 0.0000000000000000000, 0.0000000000000000000, 1.000000000000000000 ) ) ;
#171 = CC_DESIGN_PERSON_AND_ORGANIZATION_ASSIGNMENT ( #100, #34, ( #154 ) ) ;
#172 = LOCAL_TIME ( 10, 42, 29.00000000000000000, #156 ) ;
#173 = APPROVAL_ROLE ( '' ) ;
#174 = PERSON_AND_ORGANIZATION_ROLE ( 'creator' ) ;
#175 = ORIENTED_EDGE ( 'NONE', *, *, #131, .F. ) ;
ENDSEC;
END-ISO-10303-21;
