ISO-10303-21;
HEADER;
FILE_DESCRIPTION (( 'STEP AP203' ),
    '1' );
FILE_NAME ('Web Model 45464_49642.step',
    '2019-01-07T15:37:48',
    ( '' ),
    ( '' ),
    'SwSTEP 2.0',
    'SolidWorks 2016',
    '' );
FILE_SCHEMA (( 'CONFIG_CONTROL_DESIGN' ));
ENDSEC;

DATA;
#1 = ORIENTED_EDGE ( 'NONE', *, *, #4, .T. ) ;
#2 = PERSON_AND_ORGANIZATION ( #66, #27 ) ;
#3 = APPROVAL_ROLE ( '' ) ;
#4 = EDGE_CURVE ( 'NONE', #10, #83, #82, .T. ) ;
#5 = PERSON_AND_ORGANIZATION ( #66, #27 ) ;
#6 = AXIS2_PLACEMENT_3D ( 'NONE', #92, #25, #54 ) ;
#7 = CARTESIAN_POINT ( 'NONE',  ( -10.00000000000000000, 0.0000000000000000000, 1.000000000000000000 ) ) ;
#8 = DIRECTION ( 'NONE',  ( -0.0000000000000000000, -0.0000000000000000000, -1.000000000000000000 ) ) ;
#9 = COORDINATED_UNIVERSAL_TIME_OFFSET ( 5, 0, .BEHIND. ) ;
#10 = VERTEX_POINT ( 'NONE', #174 ) ;
#11 = AXIS2_PLACEMENT_3D ( 'NONE', #104, #115, #156 ) ;
#12 = CARTESIAN_POINT ( 'NONE',  ( -10.00000000000000000, 0.0000000000000000000, 1.000000000000000000 ) ) ;
#13 = FACE_OUTER_BOUND ( 'NONE', #135, .T. ) ;
#14 = LOCAL_TIME ( 10, 37, 48.00000000000000000, #42 ) ;
#15 = EDGE_CURVE ( 'NONE', #161, #83, #50, .T. ) ;
#16 = PERSON_AND_ORGANIZATION ( #66, #27 ) ;
#17 = APPLICATION_PROTOCOL_DEFINITION ( 'international standard', 'config_control_design', 1994, #89 ) ;
#18 = ORIENTED_EDGE ( 'NONE', *, *, #15, .T. ) ;
#19 = ORIENTED_EDGE ( 'NONE', *, *, #170, .T. ) ;
#20 = DESIGN_CONTEXT ( 'detailed design', #89, 'design' ) ;
#21 = AXIS2_PLACEMENT_3D ( 'NONE', #139, #129, #141 ) ;
#22 = APPROVAL_DATE_TIME ( #44, #121 ) ;
#23 = ORIENTED_EDGE ( 'NONE', *, *, #136, .F. ) ;
#24 = CARTESIAN_POINT ( 'NONE',  ( 10.00000000000000000, 1.224646799147353300E-015, 1.000000000000000000 ) ) ;
#25 = DIRECTION ( 'NONE',  ( 0.0000000000000000000, 0.0000000000000000000, 1.000000000000000000 ) ) ;
#26 = CC_DESIGN_APPROVAL ( #73, ( #68 ) ) ;
#27 = ORGANIZATION ( 'UNSPECIFIED', 'UNSPECIFIED', '' ) ;
#28 = UNCERTAINTY_MEASURE_WITH_UNIT (LENGTH_MEASURE( 1.000000000000000100E-005 ), #114, 'distance_accuracy_value', 'NONE');
#29 = CC_DESIGN_DATE_AND_TIME_ASSIGNMENT ( #71, #32, ( #65 ) ) ;
#30 = AXIS2_PLACEMENT_3D ( 'NONE', #74, #98, #165 ) ;
#31 = CYLINDRICAL_SURFACE ( 'NONE', #88, 10.00000000000000000 ) ;
#32 = DATE_TIME_ROLE ( 'creation_date' ) ;
#33 = LOCAL_TIME ( 10, 37, 48.00000000000000000, #133 ) ;
#34 = CARTESIAN_POINT ( 'NONE',  ( 0.0000000000000000000, 0.0000000000000000000, 1.000000000000000000 ) ) ;
#35 = CC_DESIGN_PERSON_AND_ORGANIZATION_ASSIGNMENT ( #16, #131, ( #65 ) ) ;
#36 = DATE_AND_TIME ( #116, #33 ) ;
#37 = ORIENTED_EDGE ( 'NONE', *, *, #119, .F. ) ;
#38 = APPROVAL_PERSON_ORGANIZATION ( #91, #121, #3 ) ;
#39 = ORIENTED_EDGE ( 'NONE', *, *, #136, .T. ) ;
#40 = DIRECTION ( 'NONE',  ( -0.0000000000000000000, -0.0000000000000000000, -1.000000000000000000 ) ) ;
#41 = CC_DESIGN_SECURITY_CLASSIFICATION ( #68, ( #132 ) ) ;
#42 = COORDINATED_UNIVERSAL_TIME_OFFSET ( 5, 0, .BEHIND. ) ;
#43 = CC_DESIGN_PERSON_AND_ORGANIZATION_ASSIGNMENT ( #5, #151, ( #118 ) ) ;
#44 = DATE_AND_TIME ( #107, #127 ) ;
#45 = VERTEX_POINT ( 'NONE', #172 ) ;
#46 = APPROVAL_ROLE ( '' ) ;
#47 = PRODUCT_RELATED_PRODUCT_CATEGORY ( 'detail', '', ( #118 ) ) ;
#48 = AXIS2_PLACEMENT_3D ( 'NONE', #34, #8, #102 ) ;
#49 = APPROVAL_ROLE ( '' ) ;
#50 = LINE ( 'NONE', #12, #84 ) ;
#51 = PLANE ( 'NONE',  #11 ) ;
#52 = CARTESIAN_POINT ( 'NONE',  ( 0.0000000000000000000, 0.0000000000000000000, -1.000000000000000000 ) ) ;
#53 = APPROVAL ( #110, 'UNSPECIFIED' ) ;
#54 = DIRECTION ( 'NONE',  ( 1.000000000000000000, 0.0000000000000000000, -0.0000000000000000000 ) ) ;
#55 = CARTESIAN_POINT ( 'NONE',  ( 0.0000000000000000000, 0.0000000000000000000, 1.000000000000000000 ) ) ;
#56 = ADVANCED_FACE ( 'NONE', ( #67 ), #31, .T. ) ;
#57 = CARTESIAN_POINT ( 'NONE',  ( 0.0000000000000000000, 0.0000000000000000000, 1.000000000000000000 ) ) ;
#58 = EDGE_LOOP ( 'NONE', ( #72, #39, #1, #105 ) ) ;
#59 = CIRCLE ( 'NONE', #30, 10.00000000000000000 ) ;
#60 = APPROVAL_DATE_TIME ( #77, #73 ) ;
#61 = ORIENTED_EDGE ( 'NONE', *, *, #119, .T. ) ;
#62 = LINE ( 'NONE', #24, #144 ) ;
#63 = CC_DESIGN_APPROVAL ( #121, ( #132 ) ) ;
#64 = SHAPE_DEFINITION_REPRESENTATION ( #162, #160 ) ;
#65 = PRODUCT_DEFINITION ( 'UNKNOWN', '', #132, #20 ) ;
#66 = PERSON ( 'UNSPECIFIED', 'UNSPECIFIED', 'UNSPECIFIED', ('UNSPECIFIED'), ('UNSPECIFIED'), ('UNSPECIFIED') ) ;
#67 = FACE_OUTER_BOUND ( 'NONE', #58, .T. ) ;
#68 = SECURITY_CLASSIFICATION ( '', '', #75 ) ;
#69 = PERSON_AND_ORGANIZATION ( #66, #27 ) ;
#70 = CALENDAR_DATE ( 2019, 7, 1 ) ;
#71 = DATE_AND_TIME ( #70, #14 ) ;
#72 = ORIENTED_EDGE ( 'NONE', *, *, #126, .F. ) ;
#73 = APPROVAL ( #164, 'UNSPECIFIED' ) ;
#74 = CARTESIAN_POINT ( 'NONE',  ( 0.0000000000000000000, 0.0000000000000000000, 1.000000000000000000 ) ) ;
#75 = SECURITY_CLASSIFICATION_LEVEL ( 'unclassified' ) ;
#76 = MANIFOLD_SOLID_BREP ( 'Boss-Extrude1', #122 ) ;
#77 = DATE_AND_TIME ( #146, #86 ) ;
#78 = CALENDAR_DATE ( 2019, 7, 1 ) ;
#79 = CARTESIAN_POINT ( 'NONE',  ( -10.00000000000000000, 0.0000000000000000000, -1.000000000000000000 ) ) ;
#80 = DIRECTION ( 'NONE',  ( 1.000000000000000000, 0.0000000000000000000, 0.0000000000000000000 ) ) ;
#81 = PERSON_AND_ORGANIZATION_ROLE ( 'classification_officer' ) ;
#82 = CIRCLE ( 'NONE', #21, 10.00000000000000000 ) ;
#83 = VERTEX_POINT ( 'NONE', #79 ) ;
#84 = VECTOR ( 'NONE', #40, 1000.000000000000000 ) ;
#85 = ORIENTED_EDGE ( 'NONE', *, *, #4, .F. ) ;
#86 = LOCAL_TIME ( 10, 37, 48.00000000000000000, #120 ) ;
#87 = APPROVAL_DATE_TIME ( #140, #53 ) ;
#88 = AXIS2_PLACEMENT_3D ( 'NONE', #57, #149, #163 ) ;
#89 = APPLICATION_CONTEXT ( 'configuration controlled 3d designs of mechanical parts and assemblies' ) ;
#90 =( NAMED_UNIT ( * ) SI_UNIT ( $, .STERADIAN. ) SOLID_ANGLE_UNIT ( ) );
#91 = PERSON_AND_ORGANIZATION ( #66, #27 ) ;
#92 = CARTESIAN_POINT ( 'NONE',  ( 0.0000000000000000000, 0.0000000000000000000, -1.000000000000000000 ) ) ;
#93 = DIRECTION ( 'NONE',  ( 0.0000000000000000000, 0.0000000000000000000, 1.000000000000000000 ) ) ;
#94 = CC_DESIGN_PERSON_AND_ORGANIZATION_ASSIGNMENT ( #147, #157, ( #132 ) ) ;
#95 = FACE_OUTER_BOUND ( 'NONE', #145, .T. ) ;
#96 = AXIS2_PLACEMENT_3D ( 'NONE', #52, #154, #80 ) ;
#97 = APPLICATION_PROTOCOL_DEFINITION ( 'international standard', 'config_control_design', 1994, #117 ) ;
#98 = DIRECTION ( 'NONE',  ( 0.0000000000000000000, 0.0000000000000000000, 1.000000000000000000 ) ) ;
#99 = PERSON_AND_ORGANIZATION ( #66, #27 ) ;
#100 = ORIENTED_EDGE ( 'NONE', *, *, #126, .T. ) ;
#101 = CC_DESIGN_PERSON_AND_ORGANIZATION_ASSIGNMENT ( #2, #81, ( #68 ) ) ;
#102 = DIRECTION ( 'NONE',  ( -1.000000000000000000, 0.0000000000000000000, 0.0000000000000000000 ) ) ;
#103 = COORDINATED_UNIVERSAL_TIME_OFFSET ( 5, 0, .BEHIND. ) ;
#104 = CARTESIAN_POINT ( 'NONE',  ( 0.0000000000000000000, 0.0000000000000000000, 1.000000000000000000 ) ) ;
#105 = ORIENTED_EDGE ( 'NONE', *, *, #15, .F. ) ;
#106 = DIRECTION ( 'NONE',  ( 1.000000000000000000, 0.0000000000000000000, 0.0000000000000000000 ) ) ;
#107 = CALENDAR_DATE ( 2019, 7, 1 ) ;
#108 = CYLINDRICAL_SURFACE ( 'NONE', #48, 10.00000000000000000 ) ;
#109 = ORIENTED_EDGE ( 'NONE', *, *, #170, .F. ) ;
#110 = APPROVAL_STATUS ( 'not_yet_approved' ) ;
#111 = CIRCLE ( 'NONE', #96, 10.00000000000000000 ) ;
#112 = CC_DESIGN_DATE_AND_TIME_ASSIGNMENT ( #36, #169, ( #68 ) ) ;
#113 = DIRECTION ( 'NONE',  ( -0.0000000000000000000, -0.0000000000000000000, -1.000000000000000000 ) ) ;
#114 =( LENGTH_UNIT ( ) NAMED_UNIT ( * ) SI_UNIT ( .MILLI., .METRE. ) );
#115 = DIRECTION ( 'NONE',  ( 0.0000000000000000000, 0.0000000000000000000, 1.000000000000000000 ) ) ;
#116 = CALENDAR_DATE ( 2019, 7, 1 ) ;
#117 = APPLICATION_CONTEXT ( 'configuration controlled 3d designs of mechanical parts and assemblies' ) ;
#118 = PRODUCT ( 'Web Model 45464_49642', 'Web Model 45464_49642', '', ( #137 ) ) ;
#119 = EDGE_CURVE ( 'NONE', #161, #45, #59, .T. ) ;
#120 = COORDINATED_UNIVERSAL_TIME_OFFSET ( 5, 0, .BEHIND. ) ;
#121 = APPROVAL ( #134, 'UNSPECIFIED' ) ;
#122 = CLOSED_SHELL ( 'NONE', ( #56, #158, #130, #173 ) ) ;
#123 = CIRCLE ( 'NONE', #153, 10.00000000000000000 ) ;
#124 = PERSON_AND_ORGANIZATION_ROLE ( 'creator' ) ;
#125 = AXIS2_PLACEMENT_3D ( 'NONE', #171, #128, #106 ) ;
#126 = EDGE_CURVE ( 'NONE', #45, #161, #123, .T. ) ;
#127 = LOCAL_TIME ( 10, 37, 48.00000000000000000, #103 ) ;
#128 = DIRECTION ( 'NONE',  ( 0.0000000000000000000, 0.0000000000000000000, 1.000000000000000000 ) ) ;
#129 = DIRECTION ( 'NONE',  ( 0.0000000000000000000, 0.0000000000000000000, 1.000000000000000000 ) ) ;
#130 = ADVANCED_FACE ( 'NONE', ( #95 ), #51, .T. ) ;
#131 = PERSON_AND_ORGANIZATION_ROLE ( 'creator' ) ;
#132 = PRODUCT_DEFINITION_FORMATION_WITH_SPECIFIED_SOURCE ( 'ANY', '', #118, .NOT_KNOWN. ) ;
#133 = COORDINATED_UNIVERSAL_TIME_OFFSET ( 5, 0, .BEHIND. ) ;
#134 = APPROVAL_STATUS ( 'not_yet_approved' ) ;
#135 = EDGE_LOOP ( 'NONE', ( #23, #37, #18, #19 ) ) ;
#136 = EDGE_CURVE ( 'NONE', #45, #10, #62, .T. ) ;
#137 = MECHANICAL_CONTEXT ( 'NONE', #117, 'mechanical' ) ;
#138 = PERSON_AND_ORGANIZATION ( #66, #27 ) ;
#139 = CARTESIAN_POINT ( 'NONE',  ( 0.0000000000000000000, 0.0000000000000000000, -1.000000000000000000 ) ) ;
#140 = DATE_AND_TIME ( #78, #159 ) ;
#141 = DIRECTION ( 'NONE',  ( 1.000000000000000000, 0.0000000000000000000, 0.0000000000000000000 ) ) ;
#142 = CC_DESIGN_PERSON_AND_ORGANIZATION_ASSIGNMENT ( #69, #124, ( #132 ) ) ;
#143 = APPROVAL_PERSON_ORGANIZATION ( #138, #53, #46 ) ;
#144 = VECTOR ( 'NONE', #113, 1000.000000000000000 ) ;
#145 = EDGE_LOOP ( 'NONE', ( #61, #100 ) ) ;
#146 = CALENDAR_DATE ( 2019, 7, 1 ) ;
#147 = PERSON_AND_ORGANIZATION ( #66, #27 ) ;
#148 = EDGE_LOOP ( 'NONE', ( #109, #85 ) ) ;
#149 = DIRECTION ( 'NONE',  ( -0.0000000000000000000, -0.0000000000000000000, -1.000000000000000000 ) ) ;
#150 = DIRECTION ( 'NONE',  ( 1.000000000000000000, 0.0000000000000000000, 0.0000000000000000000 ) ) ;
#151 = PERSON_AND_ORGANIZATION_ROLE ( 'design_owner' ) ;
#152 =( NAMED_UNIT ( * ) PLANE_ANGLE_UNIT ( ) SI_UNIT ( $, .RADIAN. ) );
#153 = AXIS2_PLACEMENT_3D ( 'NONE', #55, #93, #150 ) ;
#154 = DIRECTION ( 'NONE',  ( 0.0000000000000000000, 0.0000000000000000000, 1.000000000000000000 ) ) ;
#155 = APPROVAL_PERSON_ORGANIZATION ( #99, #73, #49 ) ;
#156 = DIRECTION ( 'NONE',  ( 1.000000000000000000, 0.0000000000000000000, -0.0000000000000000000 ) ) ;
#157 = PERSON_AND_ORGANIZATION_ROLE ( 'design_supplier' ) ;
#158 = ADVANCED_FACE ( 'NONE', ( #13 ), #108, .T. ) ;
#159 = LOCAL_TIME ( 10, 37, 48.00000000000000000, #9 ) ;
#160 = ADVANCED_BREP_SHAPE_REPRESENTATION ( 'Web Model 45464_49642', ( #76, #125 ), #167 ) ;
#161 = VERTEX_POINT ( 'NONE', #7 ) ;
#162 = PRODUCT_DEFINITION_SHAPE ( 'NONE', 'NONE',  #65 ) ;
#163 = DIRECTION ( 'NONE',  ( -1.000000000000000000, 0.0000000000000000000, 0.0000000000000000000 ) ) ;
#164 = APPROVAL_STATUS ( 'not_yet_approved' ) ;
#165 = DIRECTION ( 'NONE',  ( 1.000000000000000000, 0.0000000000000000000, 0.0000000000000000000 ) ) ;
#166 = FACE_OUTER_BOUND ( 'NONE', #148, .T. ) ;
#167 =( GEOMETRIC_REPRESENTATION_CONTEXT ( 3 ) GLOBAL_UNCERTAINTY_ASSIGNED_CONTEXT ( ( #28 ) ) GLOBAL_UNIT_ASSIGNED_CONTEXT ( ( #114, #152, #90 ) ) REPRESENTATION_CONTEXT ( 'NONE', 'WORKASPACE' ) );
#168 = PLANE ( 'NONE',  #6 ) ;
#169 = DATE_TIME_ROLE ( 'classification_date' ) ;
#170 = EDGE_CURVE ( 'NONE', #83, #10, #111, .T. ) ;
#171 = CARTESIAN_POINT ( 'NONE',  ( 0.0000000000000000000, 0.0000000000000000000, 0.0000000000000000000 ) ) ;
#172 = CARTESIAN_POINT ( 'NONE',  ( 10.00000000000000000, 1.224646799147353300E-015, 1.000000000000000000 ) ) ;
#173 = ADVANCED_FACE ( 'NONE', ( #166 ), #168, .F. ) ;
#174 = CARTESIAN_POINT ( 'NONE',  ( 10.00000000000000000, 1.224646799147353300E-015, -1.000000000000000000 ) ) ;
#175 = CC_DESIGN_APPROVAL ( #53, ( #65 ) ) ;
ENDSEC;
END-ISO-10303-21;
