ISO-10303-21;
HEADER;
FILE_DESCRIPTION (( 'STEP AP203' ),
    '1' );
FILE_NAME ('Web Model 43895_43895.step',
    '2017-03-01T21:16:03',
    ( '' ),
    ( '' ),
    'SwSTEP 2.0',
    'SolidWorks 2016',
    '' );
FILE_SCHEMA (( 'CONFIG_CONTROL_DESIGN' ));
ENDSEC;

DATA;
#1 = APPROVAL ( #166, 'UNSPECIFIED' ) ;
#2 = PERSON_AND_ORGANIZATION_ROLE ( 'creator' ) ;
#3 = APPLICATION_CONTEXT ( 'configuration controlled 3d designs of mechanical parts and assemblies' ) ;
#4 = ORIENTED_EDGE ( 'NONE', *, *, #109, .T. ) ;
#5 = ORIENTED_EDGE ( 'NONE', *, *, #114, .F. ) ;
#6 = LOCAL_TIME ( 16, 16, 3.000000000000000000, #22 ) ;
#7 = PERSON_AND_ORGANIZATION ( #54, #175 ) ;
#8 = DIRECTION ( 'NONE',  ( -0.0000000000000000000, -0.0000000000000000000, -1.000000000000000000 ) ) ;
#9 = CARTESIAN_POINT ( 'NONE',  ( 0.0000000000000000000, 0.0000000000000000000, 3.250000000000000000 ) ) ;
#10 = CARTESIAN_POINT ( 'NONE',  ( 50.00000000000000000, 6.123233995736764500E-015, -3.250000000000000000 ) ) ;
#11 =( GEOMETRIC_REPRESENTATION_CONTEXT ( 3 ) GLOBAL_UNCERTAINTY_ASSIGNED_CONTEXT ( ( #59 ) ) GLOBAL_UNIT_ASSIGNED_CONTEXT ( ( #145, #156, #26 ) ) REPRESENTATION_CONTEXT ( 'NONE', 'WORKASPACE' ) );
#12 = CARTESIAN_POINT ( 'NONE',  ( 0.0000000000000000000, 0.0000000000000000000, 0.0000000000000000000 ) ) ;
#13 = DIRECTION ( 'NONE',  ( 1.000000000000000000, 0.0000000000000000000, 0.0000000000000000000 ) ) ;
#14 = DIRECTION ( 'NONE',  ( 0.0000000000000000000, 0.0000000000000000000, 1.000000000000000000 ) ) ;
#15 = APPROVAL_ROLE ( '' ) ;
#16 = CC_DESIGN_PERSON_AND_ORGANIZATION_ASSIGNMENT ( #81, #2, ( #144 ) ) ;
#17 = DATE_AND_TIME ( #161, #112 ) ;
#18 = AXIS2_PLACEMENT_3D ( 'NONE', #141, #164, #153 ) ;
#19 = ORIENTED_EDGE ( 'NONE', *, *, #36, .T. ) ;
#20 = APPROVAL_PERSON_ORGANIZATION ( #7, #1, #15 ) ;
#21 = DESIGN_CONTEXT ( 'detailed design', #3, 'design' ) ;
#22 = COORDINATED_UNIVERSAL_TIME_OFFSET ( 5, 0, .BEHIND. ) ;
#23 = DIRECTION ( 'NONE',  ( 1.000000000000000000, 0.0000000000000000000, -0.0000000000000000000 ) ) ;
#24 = DIRECTION ( 'NONE',  ( 1.000000000000000000, 0.0000000000000000000, -0.0000000000000000000 ) ) ;
#25 = ADVANCED_BREP_SHAPE_REPRESENTATION ( 'Web Model 43895_43895', ( #95, #125 ), #11 ) ;
#26 =( NAMED_UNIT ( * ) SI_UNIT ( $, .STERADIAN. ) SOLID_ANGLE_UNIT ( ) );
#27 = SECURITY_CLASSIFICATION_LEVEL ( 'unclassified' ) ;
#28 = CIRCLE ( 'NONE', #18, 50.00000000000000000 ) ;
#29 = CIRCLE ( 'NONE', #172, 50.00000000000000000 ) ;
#30 = CC_DESIGN_PERSON_AND_ORGANIZATION_ASSIGNMENT ( #66, #38, ( #144 ) ) ;
#31 = PERSON_AND_ORGANIZATION ( #54, #175 ) ;
#32 = AXIS2_PLACEMENT_3D ( 'NONE', #129, #69, #23 ) ;
#33 = DATE_AND_TIME ( #106, #138 ) ;
#34 = SECURITY_CLASSIFICATION ( '', '', #27 ) ;
#35 = ORIENTED_EDGE ( 'NONE', *, *, #36, .F. ) ;
#36 = EDGE_CURVE ( 'NONE', #140, #42, #46, .T. ) ;
#37 = PERSON_AND_ORGANIZATION ( #54, #175 ) ;
#38 = PERSON_AND_ORGANIZATION_ROLE ( 'design_supplier' ) ;
#39 = DIRECTION ( 'NONE',  ( 1.000000000000000000, 0.0000000000000000000, 0.0000000000000000000 ) ) ;
#40 = PERSON_AND_ORGANIZATION_ROLE ( 'creator' ) ;
#41 = PRODUCT ( 'Web Model 43895_43895', 'Web Model 43895_43895', '', ( #157 ) ) ;
#42 = VERTEX_POINT ( 'NONE', #77 ) ;
#43 = CC_DESIGN_DATE_AND_TIME_ASSIGNMENT ( #142, #168, ( #151 ) ) ;
#44 = APPROVAL_PERSON_ORGANIZATION ( #37, #58, #85 ) ;
#45 = CC_DESIGN_PERSON_AND_ORGANIZATION_ASSIGNMENT ( #31, #131, ( #34 ) ) ;
#46 = CIRCLE ( 'NONE', #93, 50.00000000000000000 ) ;
#47 = DIRECTION ( 'NONE',  ( -0.0000000000000000000, -0.0000000000000000000, -1.000000000000000000 ) ) ;
#48 = ADVANCED_FACE ( 'NONE', ( #167 ), #146, .T. ) ;
#49 = DIRECTION ( 'NONE',  ( -1.000000000000000000, 0.0000000000000000000, 0.0000000000000000000 ) ) ;
#50 = AXIS2_PLACEMENT_3D ( 'NONE', #96, #47, #150 ) ;
#51 = LOCAL_TIME ( 16, 16, 3.000000000000000000, #101 ) ;
#52 = APPROVAL_STATUS ( 'not_yet_approved' ) ;
#53 = APPLICATION_PROTOCOL_DEFINITION ( 'international standard', 'config_control_design', 1994, #3 ) ;
#54 = PERSON ( 'UNSPECIFIED', 'UNSPECIFIED', 'UNSPECIFIED', ('UNSPECIFIED'), ('UNSPECIFIED'), ('UNSPECIFIED') ) ;
#55 = ORIENTED_EDGE ( 'NONE', *, *, #160, .T. ) ;
#56 = CC_DESIGN_DATE_AND_TIME_ASSIGNMENT ( #17, #130, ( #34 ) ) ;
#57 = CALENDAR_DATE ( 2017, 1, 3 ) ;
#58 = APPROVAL ( #52, 'UNSPECIFIED' ) ;
#59 = UNCERTAINTY_MEASURE_WITH_UNIT (LENGTH_MEASURE( 1.000000000000000100E-005 ), #145, 'distance_accuracy_value', 'NONE');
#60 = ORIENTED_EDGE ( 'NONE', *, *, #160, .F. ) ;
#61 = SHAPE_DEFINITION_REPRESENTATION ( #111, #25 ) ;
#62 = AXIS2_PLACEMENT_3D ( 'NONE', #154, #115, #24 ) ;
#63 = CC_DESIGN_APPROVAL ( #1, ( #151 ) ) ;
#64 = DIRECTION ( 'NONE',  ( 1.000000000000000000, 0.0000000000000000000, 0.0000000000000000000 ) ) ;
#65 = APPROVAL ( #116, 'UNSPECIFIED' ) ;
#66 = PERSON_AND_ORGANIZATION ( #54, #175 ) ;
#67 = CARTESIAN_POINT ( 'NONE',  ( -50.00000000000000000, 0.0000000000000000000, 3.250000000000000000 ) ) ;
#68 = DIRECTION ( 'NONE',  ( -0.0000000000000000000, -0.0000000000000000000, -1.000000000000000000 ) ) ;
#69 = DIRECTION ( 'NONE',  ( 0.0000000000000000000, 0.0000000000000000000, 1.000000000000000000 ) ) ;
#70 = DIRECTION ( 'NONE',  ( 0.0000000000000000000, 0.0000000000000000000, 1.000000000000000000 ) ) ;
#71 = ORIENTED_EDGE ( 'NONE', *, *, #149, .F. ) ;
#72 = COORDINATED_UNIVERSAL_TIME_OFFSET ( 5, 0, .BEHIND. ) ;
#73 = CC_DESIGN_APPROVAL ( #65, ( #34 ) ) ;
#74 = VERTEX_POINT ( 'NONE', #152 ) ;
#75 = CYLINDRICAL_SURFACE ( 'NONE', #123, 50.00000000000000000 ) ;
#76 = ADVANCED_FACE ( 'NONE', ( #158 ), #173, .F. ) ;
#77 = CARTESIAN_POINT ( 'NONE',  ( 50.00000000000000000, 6.123233995736764500E-015, 3.250000000000000000 ) ) ;
#78 = FACE_OUTER_BOUND ( 'NONE', #136, .T. ) ;
#79 = PLANE ( 'NONE',  #32 ) ;
#80 = CC_DESIGN_APPROVAL ( #58, ( #144 ) ) ;
#81 = PERSON_AND_ORGANIZATION ( #54, #175 ) ;
#82 = CC_DESIGN_PERSON_AND_ORGANIZATION_ASSIGNMENT ( #137, #107, ( #41 ) ) ;
#83 = LINE ( 'NONE', #67, #147 ) ;
#84 = APPROVAL_ROLE ( '' ) ;
#85 = APPROVAL_ROLE ( '' ) ;
#86 = ADVANCED_FACE ( 'NONE', ( #133 ), #75, .T. ) ;
#87 = CC_DESIGN_SECURITY_CLASSIFICATION ( #34, ( #144 ) ) ;
#88 = EDGE_LOOP ( 'NONE', ( #71, #118, #4, #60 ) ) ;
#89 = APPROVAL_DATE_TIME ( #92, #1 ) ;
#90 = VERTEX_POINT ( 'NONE', #10 ) ;
#91 = CC_DESIGN_PERSON_AND_ORGANIZATION_ASSIGNMENT ( #122, #40, ( #151 ) ) ;
#92 = DATE_AND_TIME ( #135, #51 ) ;
#93 = AXIS2_PLACEMENT_3D ( 'NONE', #162, #126, #64 ) ;
#94 = AXIS2_PLACEMENT_3D ( 'NONE', #128, #100, #103 ) ;
#95 = MANIFOLD_SOLID_BREP ( 'Boss-Extrude1', #124 ) ;
#96 = CARTESIAN_POINT ( 'NONE',  ( 0.0000000000000000000, 0.0000000000000000000, 3.250000000000000000 ) ) ;
#97 = ORIENTED_EDGE ( 'NONE', *, *, #109, .F. ) ;
#98 = CIRCLE ( 'NONE', #94, 50.00000000000000000 ) ;
#99 = PRODUCT_RELATED_PRODUCT_CATEGORY ( 'detail', '', ( #41 ) ) ;
#100 = DIRECTION ( 'NONE',  ( 0.0000000000000000000, 0.0000000000000000000, 1.000000000000000000 ) ) ;
#101 = COORDINATED_UNIVERSAL_TIME_OFFSET ( 5, 0, .BEHIND. ) ;
#102 = CARTESIAN_POINT ( 'NONE',  ( 50.00000000000000000, 6.123233995736764500E-015, 3.250000000000000000 ) ) ;
#103 = DIRECTION ( 'NONE',  ( 1.000000000000000000, 0.0000000000000000000, 0.0000000000000000000 ) ) ;
#104 = APPLICATION_CONTEXT ( 'configuration controlled 3d designs of mechanical parts and assemblies' ) ;
#105 = CARTESIAN_POINT ( 'NONE',  ( 0.0000000000000000000, 0.0000000000000000000, -3.250000000000000000 ) ) ;
#106 = CALENDAR_DATE ( 2017, 1, 3 ) ;
#107 = PERSON_AND_ORGANIZATION_ROLE ( 'design_owner' ) ;
#108 = DATE_AND_TIME ( #155, #119 ) ;
#109 = EDGE_CURVE ( 'NONE', #90, #74, #28, .T. ) ;
#110 = ADVANCED_FACE ( 'NONE', ( #78 ), #79, .T. ) ;
#111 = PRODUCT_DEFINITION_SHAPE ( 'NONE', 'NONE',  #151 ) ;
#112 = LOCAL_TIME ( 16, 16, 3.000000000000000000, #139 ) ;
#113 = APPROVAL_PERSON_ORGANIZATION ( #148, #65, #84 ) ;
#114 = EDGE_CURVE ( 'NONE', #42, #90, #117, .T. ) ;
#115 = DIRECTION ( 'NONE',  ( 0.0000000000000000000, 0.0000000000000000000, 1.000000000000000000 ) ) ;
#116 = APPROVAL_STATUS ( 'not_yet_approved' ) ;
#117 = LINE ( 'NONE', #102, #120 ) ;
#118 = ORIENTED_EDGE ( 'NONE', *, *, #114, .T. ) ;
#119 = LOCAL_TIME ( 16, 16, 3.000000000000000000, #169 ) ;
#120 = VECTOR ( 'NONE', #165, 1000.000000000000000 ) ;
#121 = EDGE_LOOP ( 'NONE', ( #5, #35, #55, #170 ) ) ;
#122 = PERSON_AND_ORGANIZATION ( #54, #175 ) ;
#123 = AXIS2_PLACEMENT_3D ( 'NONE', #9, #8, #49 ) ;
#124 = CLOSED_SHELL ( 'NONE', ( #86, #48, #110, #76 ) ) ;
#125 = AXIS2_PLACEMENT_3D ( 'NONE', #12, #14, #39 ) ;
#126 = DIRECTION ( 'NONE',  ( 0.0000000000000000000, 0.0000000000000000000, 1.000000000000000000 ) ) ;
#127 = ORIENTED_EDGE ( 'NONE', *, *, #149, .T. ) ;
#128 = CARTESIAN_POINT ( 'NONE',  ( 0.0000000000000000000, 0.0000000000000000000, 3.250000000000000000 ) ) ;
#129 = CARTESIAN_POINT ( 'NONE',  ( 0.0000000000000000000, 0.0000000000000000000, 3.250000000000000000 ) ) ;
#130 = DATE_TIME_ROLE ( 'classification_date' ) ;
#131 = PERSON_AND_ORGANIZATION_ROLE ( 'classification_officer' ) ;
#132 = APPLICATION_PROTOCOL_DEFINITION ( 'international standard', 'config_control_design', 1994, #104 ) ;
#133 = FACE_OUTER_BOUND ( 'NONE', #88, .T. ) ;
#134 = APPROVAL_DATE_TIME ( #33, #65 ) ;
#135 = CALENDAR_DATE ( 2017, 1, 3 ) ;
#136 = EDGE_LOOP ( 'NONE', ( #19, #127 ) ) ;
#137 = PERSON_AND_ORGANIZATION ( #54, #175 ) ;
#138 = LOCAL_TIME ( 16, 16, 3.000000000000000000, #72 ) ;
#139 = COORDINATED_UNIVERSAL_TIME_OFFSET ( 5, 0, .BEHIND. ) ;
#140 = VERTEX_POINT ( 'NONE', #143 ) ;
#141 = CARTESIAN_POINT ( 'NONE',  ( 0.0000000000000000000, 0.0000000000000000000, -3.250000000000000000 ) ) ;
#142 = DATE_AND_TIME ( #57, #6 ) ;
#143 = CARTESIAN_POINT ( 'NONE',  ( -50.00000000000000000, 0.0000000000000000000, 3.250000000000000000 ) ) ;
#144 = PRODUCT_DEFINITION_FORMATION_WITH_SPECIFIED_SOURCE ( 'ANY', '', #41, .NOT_KNOWN. ) ;
#145 =( LENGTH_UNIT ( ) NAMED_UNIT ( * ) SI_UNIT ( .MILLI., .METRE. ) );
#146 = CYLINDRICAL_SURFACE ( 'NONE', #50, 50.00000000000000000 ) ;
#147 = VECTOR ( 'NONE', #68, 1000.000000000000000 ) ;
#148 = PERSON_AND_ORGANIZATION ( #54, #175 ) ;
#149 = EDGE_CURVE ( 'NONE', #42, #140, #98, .T. ) ;
#150 = DIRECTION ( 'NONE',  ( -1.000000000000000000, 0.0000000000000000000, 0.0000000000000000000 ) ) ;
#151 = PRODUCT_DEFINITION ( 'UNKNOWN', '', #144, #21 ) ;
#152 = CARTESIAN_POINT ( 'NONE',  ( -50.00000000000000000, 0.0000000000000000000, -3.250000000000000000 ) ) ;
#153 = DIRECTION ( 'NONE',  ( 1.000000000000000000, 0.0000000000000000000, 0.0000000000000000000 ) ) ;
#154 = CARTESIAN_POINT ( 'NONE',  ( 0.0000000000000000000, 0.0000000000000000000, -3.250000000000000000 ) ) ;
#155 = CALENDAR_DATE ( 2017, 1, 3 ) ;
#156 =( NAMED_UNIT ( * ) PLANE_ANGLE_UNIT ( ) SI_UNIT ( $, .RADIAN. ) );
#157 = MECHANICAL_CONTEXT ( 'NONE', #104, 'mechanical' ) ;
#158 = FACE_OUTER_BOUND ( 'NONE', #163, .T. ) ;
#159 = APPROVAL_DATE_TIME ( #108, #58 ) ;
#160 = EDGE_CURVE ( 'NONE', #140, #74, #83, .T. ) ;
#161 = CALENDAR_DATE ( 2017, 1, 3 ) ;
#162 = CARTESIAN_POINT ( 'NONE',  ( 0.0000000000000000000, 0.0000000000000000000, 3.250000000000000000 ) ) ;
#163 = EDGE_LOOP ( 'NONE', ( #174, #97 ) ) ;
#164 = DIRECTION ( 'NONE',  ( 0.0000000000000000000, 0.0000000000000000000, 1.000000000000000000 ) ) ;
#165 = DIRECTION ( 'NONE',  ( -0.0000000000000000000, -0.0000000000000000000, -1.000000000000000000 ) ) ;
#166 = APPROVAL_STATUS ( 'not_yet_approved' ) ;
#167 = FACE_OUTER_BOUND ( 'NONE', #121, .T. ) ;
#168 = DATE_TIME_ROLE ( 'creation_date' ) ;
#169 = COORDINATED_UNIVERSAL_TIME_OFFSET ( 5, 0, .BEHIND. ) ;
#170 = ORIENTED_EDGE ( 'NONE', *, *, #171, .T. ) ;
#171 = EDGE_CURVE ( 'NONE', #74, #90, #29, .T. ) ;
#172 = AXIS2_PLACEMENT_3D ( 'NONE', #105, #70, #13 ) ;
#173 = PLANE ( 'NONE',  #62 ) ;
#174 = ORIENTED_EDGE ( 'NONE', *, *, #171, .F. ) ;
#175 = ORGANIZATION ( 'UNSPECIFIED', 'UNSPECIFIED', '' ) ;
ENDSEC;
END-ISO-10303-21;
