ISO-10303-21;
HEADER;
FILE_DESCRIPTION (( 'STEP AP203' ),
    '1' );
FILE_NAME ('Web Model 43367_21003.step',
    '2022-03-16T13:57:32',
    ( '' ),
    ( '' ),
    'SwSTEP 2.0',
    'SolidWorks 2021',
    '' );
FILE_SCHEMA (( 'CONFIG_CONTROL_DESIGN' ));
ENDSEC;

DATA;
#1 = DATE_AND_TIME ( #76, #49 ) ;
#2 = DIRECTION ( 'NONE',  ( -1.000000000000000000, 0.000000000000000000, 0.000000000000000000 ) ) ;
#3 = AXIS2_PLACEMENT_3D ( 'NONE', #131, #118, #69 ) ;
#4 = PERSON_AND_ORGANIZATION ( #40, #143 ) ;
#5 = PERSON_AND_ORGANIZATION ( #40, #143 ) ;
#6 = EDGE_CURVE ( 'NONE', #58, #168, #91, .T. ) ;
#7 = APPROVAL_STATUS ( 'not_yet_approved' ) ;
#8 = AXIS2_PLACEMENT_3D ( 'NONE', #57, #120, #108 ) ;
#9 = APPLICATION_CONTEXT ( 'configuration controlled 3d designs of mechanical parts and assemblies' ) ;
#10 = ORIENTED_EDGE ( 'NONE', *, *, #142, .F. ) ;
#11 = ORIENTED_EDGE ( 'NONE', *, *, #6, .F. ) ;
#12 = FACE_OUTER_BOUND ( 'NONE', #98, .T. ) ;
#13 = CC_DESIGN_APPROVAL ( #130, ( #166 ) ) ;
#14 = ORIENTED_EDGE ( 'NONE', *, *, #6, .T. ) ;
#15 = CYLINDRICAL_SURFACE ( 'NONE', #84, 7.500000000000000000 ) ;
#16 = COORDINATED_UNIVERSAL_TIME_OFFSET ( 5, 0, .BEHIND. ) ;
#17 = VECTOR ( 'NONE', #136, 1000.000000000000000 ) ;
#18 = AXIS2_PLACEMENT_3D ( 'NONE', #123, #138, #90 ) ;
#19 = DIRECTION ( 'NONE',  ( 0.000000000000000000, 0.000000000000000000, 1.000000000000000000 ) ) ;
#20 =( NAMED_UNIT ( * ) PLANE_ANGLE_UNIT ( ) SI_UNIT ( $, .RADIAN. ) );
#21 = CC_DESIGN_PERSON_AND_ORGANIZATION_ASSIGNMENT ( #95, #140, ( #166 ) ) ;
#22 = DIRECTION ( 'NONE',  ( 0.000000000000000000, 0.000000000000000000, 1.000000000000000000 ) ) ;
#23 = AXIS2_PLACEMENT_3D ( 'NONE', #80, #19, #102 ) ;
#24 = CALENDAR_DATE ( 2022, 16, 3 ) ;
#25 = CC_DESIGN_PERSON_AND_ORGANIZATION_ASSIGNMENT ( #4, #53, ( #172 ) ) ;
#26 = CALENDAR_DATE ( 2022, 16, 3 ) ;
#27 = CALENDAR_DATE ( 2022, 16, 3 ) ;
#28 = ORIENTED_EDGE ( 'NONE', *, *, #126, .F. ) ;
#29 = VERTEX_POINT ( 'NONE', #169 ) ;
#30 = EDGE_LOOP ( 'NONE', ( #28, #11, #41, #86 ) ) ;
#31 = DIRECTION ( 'NONE',  ( -1.000000000000000000, 0.000000000000000000, 0.000000000000000000 ) ) ;
#32 = PERSON_AND_ORGANIZATION ( #40, #143 ) ;
#33 = PERSON_AND_ORGANIZATION_ROLE ( 'creator' ) ;
#34 = APPROVAL_PERSON_ORGANIZATION ( #32, #159, #134 ) ;
#35 = ADVANCED_FACE ( 'NONE', ( #12 ), #70, .F. ) ;
#36 = LINE ( 'NONE', #137, #52 ) ;
#37 = PERSON_AND_ORGANIZATION ( #40, #143 ) ;
#38 = PRODUCT_RELATED_PRODUCT_CATEGORY ( 'detail', '', ( #71 ) ) ;
#39 = APPROVAL_DATE_TIME ( #150, #130 ) ;
#40 = PERSON ( 'UNSPECIFIED', 'UNSPECIFIED', 'UNSPECIFIED', ('UNSPECIFIED'), ('UNSPECIFIED'), ('UNSPECIFIED') ) ;
#41 = ORIENTED_EDGE ( 'NONE', *, *, #67, .T. ) ;
#42 = APPROVAL_PERSON_ORGANIZATION ( #127, #130, #85 ) ;
#43 = DIRECTION ( 'NONE',  ( 1.000000000000000000, 0.000000000000000000, 0.000000000000000000 ) ) ;
#44 = EDGE_LOOP ( 'NONE', ( #10, #100, #105, #146 ) ) ;
#45 = CARTESIAN_POINT ( 'NONE',  ( 7.500000000000000000, 9.184850993605147944E-16, 0.5000000000000000000 ) ) ;
#46 =( LENGTH_UNIT ( ) NAMED_UNIT ( * ) SI_UNIT ( .MILLI., .METRE. ) );
#47 = CARTESIAN_POINT ( 'NONE',  ( -7.500000000000000000, 0.000000000000000000, 0.5000000000000000000 ) ) ;
#48 = DIRECTION ( 'NONE',  ( -0.000000000000000000, -0.000000000000000000, -1.000000000000000000 ) ) ;
#49 = LOCAL_TIME ( 9, 57, 32.00000000000000000, #16 ) ;
#50 = CARTESIAN_POINT ( 'NONE',  ( 0.000000000000000000, 0.000000000000000000, 0.5000000000000000000 ) ) ;
#51 = COORDINATED_UNIVERSAL_TIME_OFFSET ( 5, 0, .BEHIND. ) ;
#52 = VECTOR ( 'NONE', #48, 1000.000000000000000 ) ;
#53 = PERSON_AND_ORGANIZATION_ROLE ( 'classification_officer' ) ;
#54 = CC_DESIGN_PERSON_AND_ORGANIZATION_ASSIGNMENT ( #5, #151, ( #166 ) ) ;
#55 = PERSON_AND_ORGANIZATION ( #40, #143 ) ;
#56 = EDGE_LOOP ( 'NONE', ( #14, #175 ) ) ;
#57 = CARTESIAN_POINT ( 'NONE',  ( 0.000000000000000000, 0.000000000000000000, 0.000000000000000000 ) ) ;
#58 = VERTEX_POINT ( 'NONE', #155 ) ;
#59 = DIRECTION ( 'NONE',  ( -0.000000000000000000, -0.000000000000000000, -1.000000000000000000 ) ) ;
#60 = EDGE_CURVE ( 'NONE', #29, #73, #165, .T. ) ;
#61 = PERSON_AND_ORGANIZATION ( #40, #143 ) ;
#62 = CARTESIAN_POINT ( 'NONE',  ( 0.000000000000000000, 0.000000000000000000, 0.000000000000000000 ) ) ;
#63 = COORDINATED_UNIVERSAL_TIME_OFFSET ( 5, 0, .BEHIND. ) ;
#64 = DATE_TIME_ROLE ( 'creation_date' ) ;
#65 = LOCAL_TIME ( 9, 57, 32.00000000000000000, #63 ) ;
#66 = COORDINATED_UNIVERSAL_TIME_OFFSET ( 5, 0, .BEHIND. ) ;
#67 = EDGE_CURVE ( 'NONE', #58, #29, #144, .T. ) ;
#68 = CIRCLE ( 'NONE', #18, 7.500000000000000000 ) ;
#69 = DIRECTION ( 'NONE',  ( 1.000000000000000000, 0.000000000000000000, 0.000000000000000000 ) ) ;
#70 = PLANE ( 'NONE',  #8 ) ;
#71 = PRODUCT ( 'Web Model 43367_21003', 'Web Model 43367_21003', '', ( #74 ) ) ;
#72 = APPROVAL ( #128, 'UNSPECIFIED' ) ;
#73 = VERTEX_POINT ( 'NONE', #79 ) ;
#74 = MECHANICAL_CONTEXT ( 'NONE', #106, 'mechanical' ) ;
#75 = ADVANCED_FACE ( 'NONE', ( #148 ), #15, .T. ) ;
#76 = CALENDAR_DATE ( 2022, 16, 3 ) ;
#77 = CLOSED_SHELL ( 'NONE', ( #156, #75, #99, #35 ) ) ;
#78 = AXIS2_PLACEMENT_3D ( 'NONE', #113, #59, #2 ) ;
#79 = CARTESIAN_POINT ( 'NONE',  ( 7.500000000000000000, 9.184850993605147944E-16, 0.000000000000000000 ) ) ;
#80 = CARTESIAN_POINT ( 'NONE',  ( 0.000000000000000000, 0.000000000000000000, 0.5000000000000000000 ) ) ;
#81 = DATE_AND_TIME ( #94, #162 ) ;
#82 = DATE_TIME_ROLE ( 'classification_date' ) ;
#83 = AXIS2_PLACEMENT_3D ( 'NONE', #149, #93, #124 ) ;
#84 = AXIS2_PLACEMENT_3D ( 'NONE', #50, #89, #31 ) ;
#85 = APPROVAL_ROLE ( '' ) ;
#86 = ORIENTED_EDGE ( 'NONE', *, *, #60, .T. ) ;
#87 = CC_DESIGN_PERSON_AND_ORGANIZATION_ASSIGNMENT ( #61, #33, ( #173 ) ) ;
#88 = CC_DESIGN_APPROVAL ( #72, ( #172 ) ) ;
#89 = DIRECTION ( 'NONE',  ( -0.000000000000000000, -0.000000000000000000, -1.000000000000000000 ) ) ;
#90 = DIRECTION ( 'NONE',  ( 1.000000000000000000, 0.000000000000000000, 0.000000000000000000 ) ) ;
#91 = CIRCLE ( 'NONE', #3, 7.500000000000000000 ) ;
#92 = PLANE ( 'NONE',  #23 ) ;
#93 = DIRECTION ( 'NONE',  ( 0.000000000000000000, 0.000000000000000000, 1.000000000000000000 ) ) ;
#94 = CALENDAR_DATE ( 2022, 16, 3 ) ;
#95 = PERSON_AND_ORGANIZATION ( #40, #143 ) ;
#96 = APPROVAL_DATE_TIME ( #114, #72 ) ;
#97 = AXIS2_PLACEMENT_3D ( 'NONE', #157, #170, #43 ) ;
#98 = EDGE_LOOP ( 'NONE', ( #110, #153 ) ) ;
#99 = ADVANCED_FACE ( 'NONE', ( #104 ), #92, .T. ) ;
#100 = ORIENTED_EDGE ( 'NONE', *, *, #126, .T. ) ;
#101 =( NAMED_UNIT ( * ) SI_UNIT ( $, .STERADIAN. ) SOLID_ANGLE_UNIT ( ) );
#102 = DIRECTION ( 'NONE',  ( 1.000000000000000000, 0.000000000000000000, -0.000000000000000000 ) ) ;
#103 = CC_DESIGN_DATE_AND_TIME_ASSIGNMENT ( #139, #82, ( #172 ) ) ;
#104 = FACE_OUTER_BOUND ( 'NONE', #56, .T. ) ;
#105 = ORIENTED_EDGE ( 'NONE', *, *, #145, .T. ) ;
#106 = APPLICATION_CONTEXT ( 'configuration controlled 3d designs of mechanical parts and assemblies' ) ;
#107 = DESIGN_CONTEXT ( 'detailed design', #9, 'design' ) ;
#108 = DIRECTION ( 'NONE',  ( 1.000000000000000000, 0.000000000000000000, -0.000000000000000000 ) ) ;
#109 = ADVANCED_BREP_SHAPE_REPRESENTATION ( 'Web Model 43367_21003', ( #117, #121 ), #132 ) ;
#110 = ORIENTED_EDGE ( 'NONE', *, *, #60, .F. ) ;
#111 = PERSON_AND_ORGANIZATION_ROLE ( 'design_owner' ) ;
#112 = CC_DESIGN_PERSON_AND_ORGANIZATION_ASSIGNMENT ( #37, #111, ( #71 ) ) ;
#113 = CARTESIAN_POINT ( 'NONE',  ( 0.000000000000000000, 0.000000000000000000, 0.5000000000000000000 ) ) ;
#114 = DATE_AND_TIME ( #24, #152 ) ;
#115 = APPROVAL_ROLE ( '' ) ;
#116 = CIRCLE ( 'NONE', #83, 7.500000000000000000 ) ;
#117 = MANIFOLD_SOLID_BREP ( 'Boss-Extrude1', #77 ) ;
#118 = DIRECTION ( 'NONE',  ( 0.000000000000000000, 0.000000000000000000, 1.000000000000000000 ) ) ;
#119 = CC_DESIGN_DATE_AND_TIME_ASSIGNMENT ( #81, #64, ( #173 ) ) ;
#120 = DIRECTION ( 'NONE',  ( 0.000000000000000000, 0.000000000000000000, 1.000000000000000000 ) ) ;
#121 = AXIS2_PLACEMENT_3D ( 'NONE', #62, #22, #163 ) ;
#122 = APPROVAL_STATUS ( 'not_yet_approved' ) ;
#123 = CARTESIAN_POINT ( 'NONE',  ( 0.000000000000000000, 0.000000000000000000, 0.000000000000000000 ) ) ;
#124 = DIRECTION ( 'NONE',  ( 1.000000000000000000, 0.000000000000000000, 0.000000000000000000 ) ) ;
#125 = CC_DESIGN_APPROVAL ( #159, ( #173 ) ) ;
#126 = EDGE_CURVE ( 'NONE', #168, #73, #36, .T. ) ;
#127 = PERSON_AND_ORGANIZATION ( #40, #143 ) ;
#128 = APPROVAL_STATUS ( 'not_yet_approved' ) ;
#129 = CC_DESIGN_SECURITY_CLASSIFICATION ( #172, ( #166 ) ) ;
#130 = APPROVAL ( #7, 'UNSPECIFIED' ) ;
#131 = CARTESIAN_POINT ( 'NONE',  ( 0.000000000000000000, 0.000000000000000000, 0.5000000000000000000 ) ) ;
#132 =( GEOMETRIC_REPRESENTATION_CONTEXT ( 3 ) GLOBAL_UNCERTAINTY_ASSIGNED_CONTEXT ( ( #174 ) ) GLOBAL_UNIT_ASSIGNED_CONTEXT ( ( #46, #20, #101 ) ) REPRESENTATION_CONTEXT ( 'NONE', 'WORKASPACE' ) );
#133 = APPLICATION_PROTOCOL_DEFINITION ( 'international standard', 'config_control_design', 1994, #106 ) ;
#134 = APPROVAL_ROLE ( '' ) ;
#135 = LOCAL_TIME ( 9, 57, 32.00000000000000000, #51 ) ;
#136 = DIRECTION ( 'NONE',  ( -0.000000000000000000, -0.000000000000000000, -1.000000000000000000 ) ) ;
#137 = CARTESIAN_POINT ( 'NONE',  ( 7.500000000000000000, 9.184850993605147944E-16, 0.5000000000000000000 ) ) ;
#138 = DIRECTION ( 'NONE',  ( 0.000000000000000000, 0.000000000000000000, 1.000000000000000000 ) ) ;
#139 = DATE_AND_TIME ( #26, #65 ) ;
#140 = PERSON_AND_ORGANIZATION_ROLE ( 'design_supplier' ) ;
#141 = SECURITY_CLASSIFICATION_LEVEL ( 'unclassified' ) ;
#142 = EDGE_CURVE ( 'NONE', #168, #58, #116, .T. ) ;
#143 = ORGANIZATION ( 'UNSPECIFIED', 'UNSPECIFIED', '' ) ;
#144 = LINE ( 'NONE', #47, #17 ) ;
#145 = EDGE_CURVE ( 'NONE', #73, #29, #68, .T. ) ;
#146 = ORIENTED_EDGE ( 'NONE', *, *, #67, .F. ) ;
#147 = FACE_OUTER_BOUND ( 'NONE', #44, .T. ) ;
#148 = FACE_OUTER_BOUND ( 'NONE', #30, .T. ) ;
#149 = CARTESIAN_POINT ( 'NONE',  ( 0.000000000000000000, 0.000000000000000000, 0.5000000000000000000 ) ) ;
#150 = DATE_AND_TIME ( #27, #135 ) ;
#151 = PERSON_AND_ORGANIZATION_ROLE ( 'creator' ) ;
#152 = LOCAL_TIME ( 9, 57, 32.00000000000000000, #66 ) ;
#153 = ORIENTED_EDGE ( 'NONE', *, *, #145, .F. ) ;
#154 = APPROVAL_PERSON_ORGANIZATION ( #55, #72, #115 ) ;
#155 = CARTESIAN_POINT ( 'NONE',  ( -7.500000000000000000, 0.000000000000000000, 0.5000000000000000000 ) ) ;
#156 = ADVANCED_FACE ( 'NONE', ( #147 ), #161, .T. ) ;
#157 = CARTESIAN_POINT ( 'NONE',  ( 0.000000000000000000, 0.000000000000000000, 0.000000000000000000 ) ) ;
#158 = APPLICATION_PROTOCOL_DEFINITION ( 'international standard', 'config_control_design', 1994, #9 ) ;
#159 = APPROVAL ( #122, 'UNSPECIFIED' ) ;
#160 = APPROVAL_DATE_TIME ( #1, #159 ) ;
#161 = CYLINDRICAL_SURFACE ( 'NONE', #78, 7.500000000000000000 ) ;
#162 = LOCAL_TIME ( 9, 57, 32.00000000000000000, #164 ) ;
#163 = DIRECTION ( 'NONE',  ( 1.000000000000000000, 0.000000000000000000, 0.000000000000000000 ) ) ;
#164 = COORDINATED_UNIVERSAL_TIME_OFFSET ( 5, 0, .BEHIND. ) ;
#165 = CIRCLE ( 'NONE', #97, 7.500000000000000000 ) ;
#166 = PRODUCT_DEFINITION_FORMATION_WITH_SPECIFIED_SOURCE ( 'ANY', '', #71, .NOT_KNOWN. ) ;
#167 = SHAPE_DEFINITION_REPRESENTATION ( #171, #109 ) ;
#168 = VERTEX_POINT ( 'NONE', #45 ) ;
#169 = CARTESIAN_POINT ( 'NONE',  ( -7.500000000000000000, 0.000000000000000000, 0.000000000000000000 ) ) ;
#170 = DIRECTION ( 'NONE',  ( 0.000000000000000000, 0.000000000000000000, 1.000000000000000000 ) ) ;
#171 = PRODUCT_DEFINITION_SHAPE ( 'NONE', 'NONE',  #173 ) ;
#172 = SECURITY_CLASSIFICATION ( '', '', #141 ) ;
#173 = PRODUCT_DEFINITION ( 'UNKNOWN', '', #166, #107 ) ;
#174 = UNCERTAINTY_MEASURE_WITH_UNIT (LENGTH_MEASURE( 1.000000000000000082E-05 ), #46, 'distance_accuracy_value', 'NONE');
#175 = ORIENTED_EDGE ( 'NONE', *, *, #142, .T. ) ;
ENDSEC;
END-ISO-10303-21;
