ISO-10303-21;
HEADER;
FILE_DESCRIPTION (( 'STEP AP203' ),
    '1' );
FILE_NAME ('Web Model 65878.STEP',
    '2017-01-31T19:30:25',
    ( '' ),
    ( '' ),
    'SwSTEP 2.0',
    'SolidWorks 2016',
    '' );
FILE_SCHEMA (( 'CONFIG_CONTROL_DESIGN' ));
ENDSEC;

DATA;
#1 = PERSON_AND_ORGANIZATION ( #6, #141 ) ;
#2 = DIRECTION ( 'NONE',  ( 1.000000000000000000, 0.0000000000000000000, 0.0000000000000000000 ) ) ;
#3 = PLANE ( 'NONE',  #158 ) ;
#4 = CARTESIAN_POINT ( 'NONE',  ( -25.00000000000000000, 0.0000000000000000000, 0.0000000000000000000 ) ) ;
#5 = ADVANCED_FACE ( 'NONE', ( #124 ), #3, .F. ) ;
#6 = PERSON ( 'UNSPECIFIED', 'UNSPECIFIED', 'UNSPECIFIED', ('UNSPECIFIED'), ('UNSPECIFIED'), ('UNSPECIFIED') ) ;
#7 = APPROVAL_ROLE ( '' ) ;
#8 = PERSON_AND_ORGANIZATION_ROLE ( 'creator' ) ;
#9 = PERSON_AND_ORGANIZATION_ROLE ( 'creator' ) ;
#10 = ORIENTED_EDGE ( 'NONE', *, *, #81, .T. ) ;
#11 = PRODUCT ( 'Web Model 65878', 'Web Model 65878', '', ( #108 ) ) ;
#12 = DATE_AND_TIME ( #171, #74 ) ;
#13 = AXIS2_PLACEMENT_3D ( 'NONE', #144, #100, #118 ) ;
#14 = VERTEX_POINT ( 'NONE', #103 ) ;
#15 = CARTESIAN_POINT ( 'NONE',  ( 0.0000000000000000000, 0.0000000000000000000, 5.000000000000000000 ) ) ;
#16 = AXIS2_PLACEMENT_3D ( 'NONE', #131, #106, #91 ) ;
#17 = DIRECTION ( 'NONE',  ( 0.0000000000000000000, 0.0000000000000000000, 1.000000000000000000 ) ) ;
#18 = DATE_AND_TIME ( #54, #89 ) ;
#19 = ORIENTED_EDGE ( 'NONE', *, *, #102, .F. ) ;
#20 = PERSON_AND_ORGANIZATION_ROLE ( 'classification_officer' ) ;
#21 = APPROVAL_ROLE ( '' ) ;
#22 = CC_DESIGN_APPROVAL ( #145, ( #173 ) ) ;
#23 = SHAPE_DEFINITION_REPRESENTATION ( #79, #48 ) ;
#24 = EDGE_CURVE ( 'NONE', #26, #14, #83, .T. ) ;
#25 = ORIENTED_EDGE ( 'NONE', *, *, #65, .F. ) ;
#26 = VERTEX_POINT ( 'NONE', #56 ) ;
#27 = CC_DESIGN_APPROVAL ( #170, ( #111 ) ) ;
#28 = DIRECTION ( 'NONE',  ( -0.0000000000000000000, -0.0000000000000000000, -1.000000000000000000 ) ) ;
#29 = DIRECTION ( 'NONE',  ( 1.000000000000000000, 0.0000000000000000000, 0.0000000000000000000 ) ) ;
#30 = ADVANCED_FACE ( 'NONE', ( #112 ), #153, .T. ) ;
#31 = DIRECTION ( 'NONE',  ( 0.0000000000000000000, 0.0000000000000000000, 1.000000000000000000 ) ) ;
#32 =( NAMED_UNIT ( * ) SI_UNIT ( $, .STERADIAN. ) SOLID_ANGLE_UNIT ( ) );
#33 = PERSON_AND_ORGANIZATION ( #6, #141 ) ;
#34 = CIRCLE ( 'NONE', #175, 25.00000000000000000 ) ;
#35 = DATE_AND_TIME ( #92, #138 ) ;
#36 = CC_DESIGN_PERSON_AND_ORGANIZATION_ASSIGNMENT ( #166, #9, ( #111 ) ) ;
#37 = AXIS2_PLACEMENT_3D ( 'NONE', #15, #28, #130 ) ;
#38 = APPROVAL_PERSON_ORGANIZATION ( #174, #60, #73 ) ;
#39 = EDGE_LOOP ( 'NONE', ( #114, #126, #167, #159 ) ) ;
#40 = CARTESIAN_POINT ( 'NONE',  ( 25.00000000000000000, 3.061616997868383000E-015, 5.000000000000000000 ) ) ;
#41 = AXIS2_PLACEMENT_3D ( 'NONE', #71, #104, #163 ) ;
#42 = DIRECTION ( 'NONE',  ( 0.0000000000000000000, 0.0000000000000000000, 1.000000000000000000 ) ) ;
#43 = DATE_AND_TIME ( #129, #168 ) ;
#44 = AXIS2_PLACEMENT_3D ( 'NONE', #160, #72, #2 ) ;
#45 = APPROVAL_STATUS ( 'not_yet_approved' ) ;
#46 =( NAMED_UNIT ( * ) PLANE_ANGLE_UNIT ( ) SI_UNIT ( $, .RADIAN. ) );
#47 = ORIENTED_EDGE ( 'NONE', *, *, #98, .T. ) ;
#48 = ADVANCED_BREP_SHAPE_REPRESENTATION ( 'Web Model 65878', ( #113, #110 ), #172 ) ;
#49 = LINE ( 'NONE', #117, #143 ) ;
#50 = CC_DESIGN_DATE_AND_TIME_ASSIGNMENT ( #35, #107, ( #111 ) ) ;
#51 = COORDINATED_UNIVERSAL_TIME_OFFSET ( 5, 0, .BEHIND. ) ;
#52 = AXIS2_PLACEMENT_3D ( 'NONE', #80, #17, #29 ) ;
#53 = CARTESIAN_POINT ( 'NONE',  ( -25.00000000000000000, 0.0000000000000000000, 5.000000000000000000 ) ) ;
#54 = CALENDAR_DATE ( 2017, 31, 1 ) ;
#55 = DIRECTION ( 'NONE',  ( -0.0000000000000000000, -0.0000000000000000000, -1.000000000000000000 ) ) ;
#56 = CARTESIAN_POINT ( 'NONE',  ( 25.00000000000000000, 3.061616997868383000E-015, 5.000000000000000000 ) ) ;
#57 = DIRECTION ( 'NONE',  ( 1.000000000000000000, 0.0000000000000000000, 0.0000000000000000000 ) ) ;
#58 = PERSON_AND_ORGANIZATION_ROLE ( 'design_owner' ) ;
#59 = DIRECTION ( 'NONE',  ( 0.0000000000000000000, 0.0000000000000000000, 1.000000000000000000 ) ) ;
#60 = APPROVAL ( #45, 'UNSPECIFIED' ) ;
#61 = APPROVAL_PERSON_ORGANIZATION ( #33, #145, #7 ) ;
#62 = VERTEX_POINT ( 'NONE', #4 ) ;
#63 = CC_DESIGN_PERSON_AND_ORGANIZATION_ASSIGNMENT ( #132, #8, ( #161 ) ) ;
#64 = ORIENTED_EDGE ( 'NONE', *, *, #98, .F. ) ;
#65 = EDGE_CURVE ( 'NONE', #14, #62, #34, .T. ) ;
#66 = LOCAL_TIME ( 14, 30, 25.00000000000000000, #136 ) ;
#67 = DESIGN_CONTEXT ( 'detailed design', #84, 'design' ) ;
#68 = PERSON_AND_ORGANIZATION ( #6, #141 ) ;
#69 = CARTESIAN_POINT ( 'NONE',  ( 0.0000000000000000000, 0.0000000000000000000, 0.0000000000000000000 ) ) ;
#70 = CYLINDRICAL_SURFACE ( 'NONE', #37, 25.00000000000000000 ) ;
#71 = CARTESIAN_POINT ( 'NONE',  ( 0.0000000000000000000, 0.0000000000000000000, 5.000000000000000000 ) ) ;
#72 = DIRECTION ( 'NONE',  ( 0.0000000000000000000, 0.0000000000000000000, 1.000000000000000000 ) ) ;
#73 = APPROVAL_ROLE ( '' ) ;
#74 = LOCAL_TIME ( 14, 30, 25.00000000000000000, #101 ) ;
#75 = APPROVAL_PERSON_ORGANIZATION ( #68, #170, #21 ) ;
#76 = CC_DESIGN_APPROVAL ( #60, ( #161 ) ) ;
#77 = COORDINATED_UNIVERSAL_TIME_OFFSET ( 5, 0, .BEHIND. ) ;
#78 = PLANE ( 'NONE',  #41 ) ;
#79 = PRODUCT_DEFINITION_SHAPE ( 'NONE', 'NONE',  #111 ) ;
#80 = CARTESIAN_POINT ( 'NONE',  ( 0.0000000000000000000, 0.0000000000000000000, 5.000000000000000000 ) ) ;
#81 = EDGE_CURVE ( 'NONE', #105, #62, #49, .T. ) ;
#82 = CARTESIAN_POINT ( 'NONE',  ( 0.0000000000000000000, 0.0000000000000000000, 0.0000000000000000000 ) ) ;
#83 = LINE ( 'NONE', #40, #169 ) ;
#84 = APPLICATION_CONTEXT ( 'configuration controlled 3d designs of mechanical parts and assemblies' ) ;
#85 = UNCERTAINTY_MEASURE_WITH_UNIT (LENGTH_MEASURE( 1.000000000000000100E-005 ), #146, 'distance_accuracy_value', 'NONE');
#86 = DIRECTION ( 'NONE',  ( 1.000000000000000000, 0.0000000000000000000, 0.0000000000000000000 ) ) ;
#87 = CALENDAR_DATE ( 2017, 31, 1 ) ;
#88 = CIRCLE ( 'NONE', #52, 25.00000000000000000 ) ;
#89 = LOCAL_TIME ( 14, 30, 25.00000000000000000, #51 ) ;
#90 = CC_DESIGN_PERSON_AND_ORGANIZATION_ASSIGNMENT ( #1, #20, ( #173 ) ) ;
#91 = DIRECTION ( 'NONE',  ( 1.000000000000000000, 0.0000000000000000000, 0.0000000000000000000 ) ) ;
#92 = CALENDAR_DATE ( 2017, 31, 1 ) ;
#93 = ORIENTED_EDGE ( 'NONE', *, *, #102, .T. ) ;
#94 = ORIENTED_EDGE ( 'NONE', *, *, #137, .T. ) ;
#95 = APPROVAL_DATE_TIME ( #43, #60 ) ;
#96 = CC_DESIGN_SECURITY_CLASSIFICATION ( #173, ( #161 ) ) ;
#97 = DATE_AND_TIME ( #87, #66 ) ;
#98 = EDGE_CURVE ( 'NONE', #105, #26, #125, .T. ) ;
#99 = FACE_OUTER_BOUND ( 'NONE', #157, .T. ) ;
#100 = DIRECTION ( 'NONE',  ( -0.0000000000000000000, -0.0000000000000000000, -1.000000000000000000 ) ) ;
#101 = COORDINATED_UNIVERSAL_TIME_OFFSET ( 5, 0, .BEHIND. ) ;
#102 = EDGE_CURVE ( 'NONE', #62, #14, #121, .T. ) ;
#103 = CARTESIAN_POINT ( 'NONE',  ( 25.00000000000000000, 3.061616997868383000E-015, 0.0000000000000000000 ) ) ;
#104 = DIRECTION ( 'NONE',  ( 0.0000000000000000000, 0.0000000000000000000, 1.000000000000000000 ) ) ;
#105 = VERTEX_POINT ( 'NONE', #53 ) ;
#106 = DIRECTION ( 'NONE',  ( 0.0000000000000000000, 0.0000000000000000000, 1.000000000000000000 ) ) ;
#107 = DATE_TIME_ROLE ( 'creation_date' ) ;
#108 = MECHANICAL_CONTEXT ( 'NONE', #134, 'mechanical' ) ;
#109 = DATE_TIME_ROLE ( 'classification_date' ) ;
#110 = AXIS2_PLACEMENT_3D ( 'NONE', #82, #59, #86 ) ;
#111 = PRODUCT_DEFINITION ( 'UNKNOWN', '', #161, #67 ) ;
#112 = FACE_OUTER_BOUND ( 'NONE', #127, .T. ) ;
#113 = MANIFOLD_SOLID_BREP ( 'Extrude1', #133 ) ;
#114 = ORIENTED_EDGE ( 'NONE', *, *, #137, .F. ) ;
#115 = DIRECTION ( 'NONE',  ( -0.0000000000000000000, -0.0000000000000000000, -1.000000000000000000 ) ) ;
#116 = PRODUCT_RELATED_PRODUCT_CATEGORY ( 'detail', '', ( #11 ) ) ;
#117 = CARTESIAN_POINT ( 'NONE',  ( -25.00000000000000000, 0.0000000000000000000, 5.000000000000000000 ) ) ;
#118 = DIRECTION ( 'NONE',  ( -1.000000000000000000, 0.0000000000000000000, 0.0000000000000000000 ) ) ;
#119 = CARTESIAN_POINT ( 'NONE',  ( 0.0000000000000000000, 0.0000000000000000000, 0.0000000000000000000 ) ) ;
#120 = APPROVAL_STATUS ( 'not_yet_approved' ) ;
#121 = CIRCLE ( 'NONE', #44, 25.00000000000000000 ) ;
#122 = APPLICATION_PROTOCOL_DEFINITION ( 'international standard', 'config_control_design', 1994, #134 ) ;
#123 = PERSON_AND_ORGANIZATION ( #6, #141 ) ;
#124 = FACE_OUTER_BOUND ( 'NONE', #139, .T. ) ;
#125 = CIRCLE ( 'NONE', #16, 25.00000000000000000 ) ;
#126 = ORIENTED_EDGE ( 'NONE', *, *, #24, .T. ) ;
#127 = EDGE_LOOP ( 'NONE', ( #151, #64, #10, #93 ) ) ;
#128 = DIRECTION ( 'NONE',  ( 1.000000000000000000, 0.0000000000000000000, -0.0000000000000000000 ) ) ;
#129 = CALENDAR_DATE ( 2017, 31, 1 ) ;
#130 = DIRECTION ( 'NONE',  ( -1.000000000000000000, 0.0000000000000000000, 0.0000000000000000000 ) ) ;
#131 = CARTESIAN_POINT ( 'NONE',  ( 0.0000000000000000000, 0.0000000000000000000, 5.000000000000000000 ) ) ;
#132 = PERSON_AND_ORGANIZATION ( #6, #141 ) ;
#133 = CLOSED_SHELL ( 'NONE', ( #156, #30, #162, #5 ) ) ;
#134 = APPLICATION_CONTEXT ( 'configuration controlled 3d designs of mechanical parts and assemblies' ) ;
#135 = APPLICATION_PROTOCOL_DEFINITION ( 'international standard', 'config_control_design', 1994, #84 ) ;
#136 = COORDINATED_UNIVERSAL_TIME_OFFSET ( 5, 0, .BEHIND. ) ;
#137 = EDGE_CURVE ( 'NONE', #26, #105, #88, .T. ) ;
#138 = LOCAL_TIME ( 14, 30, 25.00000000000000000, #154 ) ;
#139 = EDGE_LOOP ( 'NONE', ( #19, #25 ) ) ;
#140 = CC_DESIGN_PERSON_AND_ORGANIZATION_ASSIGNMENT ( #148, #147, ( #161 ) ) ;
#141 = ORGANIZATION ( 'UNSPECIFIED', 'UNSPECIFIED', '' ) ;
#142 = APPROVAL_DATE_TIME ( #12, #170 ) ;
#143 = VECTOR ( 'NONE', #55, 1000.000000000000000 ) ;
#144 = CARTESIAN_POINT ( 'NONE',  ( 0.0000000000000000000, 0.0000000000000000000, 5.000000000000000000 ) ) ;
#145 = APPROVAL ( #165, 'UNSPECIFIED' ) ;
#146 =( LENGTH_UNIT ( ) NAMED_UNIT ( * ) SI_UNIT ( .MILLI., .METRE. ) );
#147 = PERSON_AND_ORGANIZATION_ROLE ( 'design_supplier' ) ;
#148 = PERSON_AND_ORGANIZATION ( #6, #141 ) ;
#149 = SECURITY_CLASSIFICATION_LEVEL ( 'unclassified' ) ;
#150 = APPROVAL_DATE_TIME ( #18, #145 ) ;
#151 = ORIENTED_EDGE ( 'NONE', *, *, #24, .F. ) ;
#152 = CC_DESIGN_DATE_AND_TIME_ASSIGNMENT ( #97, #109, ( #173 ) ) ;
#153 = CYLINDRICAL_SURFACE ( 'NONE', #13, 25.00000000000000000 ) ;
#154 = COORDINATED_UNIVERSAL_TIME_OFFSET ( 5, 0, .BEHIND. ) ;
#155 = CC_DESIGN_PERSON_AND_ORGANIZATION_ASSIGNMENT ( #123, #58, ( #11 ) ) ;
#156 = ADVANCED_FACE ( 'NONE', ( #164 ), #70, .T. ) ;
#157 = EDGE_LOOP ( 'NONE', ( #47, #94 ) ) ;
#158 = AXIS2_PLACEMENT_3D ( 'NONE', #69, #31, #128 ) ;
#159 = ORIENTED_EDGE ( 'NONE', *, *, #81, .F. ) ;
#160 = CARTESIAN_POINT ( 'NONE',  ( 0.0000000000000000000, 0.0000000000000000000, 0.0000000000000000000 ) ) ;
#161 = PRODUCT_DEFINITION_FORMATION_WITH_SPECIFIED_SOURCE ( 'ANY', '', #11, .NOT_KNOWN. ) ;
#162 = ADVANCED_FACE ( 'NONE', ( #99 ), #78, .T. ) ;
#163 = DIRECTION ( 'NONE',  ( 1.000000000000000000, 0.0000000000000000000, -0.0000000000000000000 ) ) ;
#164 = FACE_OUTER_BOUND ( 'NONE', #39, .T. ) ;
#165 = APPROVAL_STATUS ( 'not_yet_approved' ) ;
#166 = PERSON_AND_ORGANIZATION ( #6, #141 ) ;
#167 = ORIENTED_EDGE ( 'NONE', *, *, #65, .T. ) ;
#168 = LOCAL_TIME ( 14, 30, 25.00000000000000000, #77 ) ;
#169 = VECTOR ( 'NONE', #115, 1000.000000000000000 ) ;
#170 = APPROVAL ( #120, 'UNSPECIFIED' ) ;
#171 = CALENDAR_DATE ( 2017, 31, 1 ) ;
#172 =( GEOMETRIC_REPRESENTATION_CONTEXT ( 3 ) GLOBAL_UNCERTAINTY_ASSIGNED_CONTEXT ( ( #85 ) ) GLOBAL_UNIT_ASSIGNED_CONTEXT ( ( #146, #46, #32 ) ) REPRESENTATION_CONTEXT ( 'NONE', 'WORKASPACE' ) );
#173 = SECURITY_CLASSIFICATION ( '', '', #149 ) ;
#174 = PERSON_AND_ORGANIZATION ( #6, #141 ) ;
#175 = AXIS2_PLACEMENT_3D ( 'NONE', #119, #42, #57 ) ;
ENDSEC;
END-ISO-10303-21;
