ISO-10303-21;
HEADER;
FILE_DESCRIPTION (( 'STEP AP203' ),
    '1' );
FILE_NAME ('TTN206066-E0W.STEP',
    '2020-01-17T20:19:16',
    ( '' ),
    ( '' ),
    'SwSTEP 2.0',
    'SolidWorks 2018',
    '' );
FILE_SCHEMA (( 'CONFIG_CONTROL_DESIGN' ));
ENDSEC;

DATA;
#1 = AXIS2_PLACEMENT_3D ( 'NONE', #140, #296, #163 ) ;
#2 = CONICAL_SURFACE ( 'NONE', #8, 12.55857864376269006, 0.7853981633974498333 ) ;
#3 = EDGE_CURVE ( 'NONE', #26, #194, #104, .T. ) ;
#4 = CONICAL_SURFACE ( 'NONE', #31, 12.69999999999999929, 0.7853981633974569387 ) ;
#5 = CARTESIAN_POINT ( 'NONE',  ( 0.0000000000000000000, -3.882130353297108220E-16, 1.999999999999999112 ) ) ;
#6 = ORIENTED_EDGE ( 'NONE', *, *, #141, .F. ) ;
#7 = ORIENTED_EDGE ( 'NONE', *, *, #172, .T. ) ;
#8 = AXIS2_PLACEMENT_3D ( 'NONE', #273, #133, #114 ) ;
#9 = DATE_AND_TIME ( #281, #301 ) ;
#10 = ORIENTED_EDGE ( 'NONE', *, *, #172, .F. ) ;
#11 = ORIENTED_EDGE ( 'NONE', *, *, #176, .F. ) ;
#12 = DIRECTION ( 'NONE',  ( -0.0000000000000000000, 1.224646799147353207E-16, -1.000000000000000000 ) ) ;
#13 = PERSON_AND_ORGANIZATION_ROLE ( 'design_supplier' ) ;
#14 = CARTESIAN_POINT ( 'NONE',  ( 0.0000000000000000000, -12.55857864376269006, -0.8675184326788093481 ) ) ;
#15 = PERSON_AND_ORGANIZATION_ROLE ( 'design_owner' ) ;
#16 = CARTESIAN_POINT ( 'NONE',  ( 0.0000000000000000000, 1.016456843292303500E-16, -2.000000000000000000 ) ) ;
#17 = ORIENTED_EDGE ( 'NONE', *, *, #123, .T. ) ;
#18 = CARTESIAN_POINT ( 'NONE',  ( 0.0000000000000000000, -3.637200993467638614E-16, 1.800000000000000488 ) ) ;
#19 = PERSON_AND_ORGANIZATION ( #269, #75 ) ;
#20 = ORIENTED_EDGE ( 'NONE', *, *, #154, .F. ) ;
#21 = CONICAL_SURFACE ( 'NONE', #34, 12.55857864376269006, 0.7853981633974498333 ) ;
#22 = DIRECTION ( 'NONE',  ( -0.0000000000000000000, 1.224646799147353207E-16, -1.000000000000000000 ) ) ;
#23 = VERTEX_POINT ( 'NONE', #130 ) ;
#24 = AXIS2_PLACEMENT_3D ( 'NONE', #72, #298, #50 ) ;
#25 = CARTESIAN_POINT ( 'NONE',  ( 1.555301434917138433E-15, -12.69999999999999929, -2.000000000000001776 ) ) ;
#26 = VERTEX_POINT ( 'NONE', #90 ) ;
#27 = EDGE_CURVE ( 'NONE', #194, #144, #282, .T. ) ;
#28 = EDGE_LOOP ( 'NONE', ( #138, #6, #260, #57 ) ) ;
#29 = APPROVAL_DATE_TIME ( #259, #171 ) ;
#30 = UNCERTAINTY_MEASURE_WITH_UNIT (LENGTH_MEASURE( 1.000000000000000082E-05 ), #255, 'distance_accuracy_value', 'NONE');
#31 = AXIS2_PLACEMENT_3D ( 'NONE', #18, #46, #287 ) ;
#32 = FACE_OUTER_BOUND ( 'NONE', #192, .T. ) ;
#33 = CC_DESIGN_PERSON_AND_ORGANIZATION_ASSIGNMENT ( #173, #184, ( #218 ) ) ;
#34 = AXIS2_PLACEMENT_3D ( 'NONE', #67, #268, #62 ) ;
#35 = VERTEX_POINT ( 'NONE', #252 ) ;
#36 = CALENDAR_DATE ( 2020, 17, 1 ) ;
#37 = CC_DESIGN_APPROVAL ( #261, ( #218 ) ) ;
#38 = CARTESIAN_POINT ( 'NONE',  ( 0.0000000000000000000, -5.436242944680708446E-17, -0.7260970764414985679 ) ) ;
#39 = CARTESIAN_POINT ( 'NONE',  ( 0.0000000000000000000, 12.69999999999999929, 1.800000000000001821 ) ) ;
#40 = DIRECTION ( 'NONE',  ( 0.0000000000000000000, -1.000000000000000000, -1.195183497228115281E-16 ) ) ;
#41 = ORIENTED_EDGE ( 'NONE', *, *, #27, .T. ) ;
#42 = EDGE_CURVE ( 'NONE', #26, #189, #61, .T. ) ;
#43 = CARTESIAN_POINT ( 'NONE',  ( 0.0000000000000000000, 3.465750441587009544E-16, -2.000000000000001776 ) ) ;
#44 = ORIENTED_EDGE ( 'NONE', *, *, #204, .T. ) ;
#45 = ADVANCED_FACE ( 'NONE', ( #47 ), #92, .T. ) ;
#46 = DIRECTION ( 'NONE',  ( -0.0000000000000000000, 1.224646799147353947E-16, -1.000000000000000000 ) ) ;
#47 = FACE_OUTER_BOUND ( 'NONE', #112, .T. ) ;
#48 = DIRECTION ( 'NONE',  ( -0.0000000000000000000, 1.224646799147353947E-16, -1.000000000000000000 ) ) ;
#49 = CARTESIAN_POINT ( 'NONE',  ( 0.0000000000000000000, -1.254895575086292653E-14, 68.20000000000000284 ) ) ;
#50 = DIRECTION ( 'NONE',  ( 0.0000000000000000000, 1.000000000000000000, 1.195183497228115281E-16 ) ) ;
#51 = ADVANCED_FACE ( 'NONE', ( #190 ), #2, .T. ) ;
#52 = CONICAL_SURFACE ( 'NONE', #55, 12.69999999999999929, 0.7853981633974569387 ) ;
#53 = CALENDAR_DATE ( 2020, 17, 1 ) ;
#54 = VECTOR ( 'NONE', #160, 1000.000000000000000 ) ;
#55 = AXIS2_PLACEMENT_3D ( 'NONE', #209, #69, #277 ) ;
#56 = VECTOR ( 'NONE', #272, 1000.000000000000114 ) ;
#57 = ORIENTED_EDGE ( 'NONE', *, *, #239, .F. ) ;
#58 = ORIENTED_EDGE ( 'NONE', *, *, #162, .T. ) ;
#59 = AXIS2_PLACEMENT_3D ( 'NONE', #5, #64, #270 ) ;
#60 = PRODUCT_RELATED_PRODUCT_CATEGORY ( 'detail', '', ( #106 ) ) ;
#61 = CIRCLE ( 'NONE', #132, 12.69999999999999929 ) ;
#62 = DIRECTION ( 'NONE',  ( 0.0000000000000000000, -1.000000000000000000, -1.208642382658147351E-16 ) ) ;
#63 = DIRECTION ( 'NONE',  ( -0.0000000000000000000, 1.224646799147353207E-16, -1.000000000000000000 ) ) ;
#64 = DIRECTION ( 'NONE',  ( 0.0000000000000000000, -1.224646799147353207E-16, 1.000000000000000000 ) ) ;
#65 = AXIS2_PLACEMENT_3D ( 'NONE', #84, #183, #110 ) ;
#66 = FACE_OUTER_BOUND ( 'NONE', #28, .T. ) ;
#67 = CARTESIAN_POINT ( 'NONE',  ( 0.0000000000000000000, -3.704330832209723230E-17, -0.8675184326788077938 ) ) ;
#68 = CARTESIAN_POINT ( 'NONE',  ( 0.0000000000000000000, -1.254895575086292653E-14, 68.20000000000000284 ) ) ;
#69 = DIRECTION ( 'NONE',  ( -0.0000000000000000000, 1.224646799147353947E-16, -1.000000000000000000 ) ) ;
#70 = ORIENTED_EDGE ( 'NONE', *, *, #42, .F. ) ;
#71 = CARTESIAN_POINT ( 'NONE',  ( 0.0000000000000000000, -3.637200993467638614E-16, 1.800000000000000488 ) ) ;
#72 = CARTESIAN_POINT ( 'NONE',  ( 0.0000000000000000000, -5.436242944680708446E-17, -0.7260970764414985679 ) ) ;
#73 = ORIENTED_EDGE ( 'NONE', *, *, #263, .F. ) ;
#74 = AXIS2_PLACEMENT_3D ( 'NONE', #250, #206, #40 ) ;
#75 = ORGANIZATION ( 'UNSPECIFIED', 'UNSPECIFIED', '' ) ;
#76 =( GEOMETRIC_REPRESENTATION_CONTEXT ( 3 ) GLOBAL_UNCERTAINTY_ASSIGNED_CONTEXT ( ( #30 ) ) GLOBAL_UNIT_ASSIGNED_CONTEXT ( ( #255, #251, #115 ) ) REPRESENTATION_CONTEXT ( 'NONE', 'WORKASPACE' ) );
#77 = LINE ( 'NONE', #39, #56 ) ;
#78 = EDGE_CURVE ( 'NONE', #150, #189, #182, .T. ) ;
#79 = COORDINATED_UNIVERSAL_TIME_OFFSET ( 5, 0, .BEHIND. ) ;
#80 = APPROVAL_DATE_TIME ( #156, #261 ) ;
#81 = ORIENTED_EDGE ( 'NONE', *, *, #141, .T. ) ;
#82 = LINE ( 'NONE', #198, #246 ) ;
#83 = ORIENTED_EDGE ( 'NONE', *, *, #85, .F. ) ;
#84 = CARTESIAN_POINT ( 'NONE',  ( 0.0000000000000000000, -3.882130353297108713E-16, 1.999999999999999112 ) ) ;
#85 = EDGE_CURVE ( 'NONE', #23, #35, #159, .T. ) ;
#86 = DIRECTION ( 'NONE',  ( 0.0000000000000000000, 1.000000000000000000, 1.365923996832131609E-16 ) ) ;
#87 = DIRECTION ( 'NONE',  ( 8.659560562354947649E-17, 0.7071067811865485719, 0.7071067811865465735 ) ) ;
#88 = APPROVAL_ROLE ( '' ) ;
#89 = DATE_AND_TIME ( #245, #230 ) ;
#90 = CARTESIAN_POINT ( 'NONE',  ( 0.0000000000000000000, 12.69999999999999929, 1.800000000000001821 ) ) ;
#91 = PRODUCT_DEFINITION_FORMATION_WITH_SPECIFIED_SOURCE ( 'ANY', '', #106, .NOT_KNOWN. ) ;
#92 = CYLINDRICAL_SURFACE ( 'NONE', #165, 12.69999999999999929 ) ;
#93 = CARTESIAN_POINT ( 'NONE',  ( 0.0000000000000000000, -3.882130353297108713E-16, 1.999999999999999112 ) ) ;
#94 = ADVANCED_FACE ( 'NONE', ( #122 ), #286, .T. ) ;
#95 = ADVANCED_FACE ( 'NONE', ( #32 ), #21, .T. ) ;
#96 = AXIS2_PLACEMENT_3D ( 'NONE', #93, #254, #108 ) ;
#97 = SHAPE_DEFINITION_REPRESENTATION ( #227, #177 ) ;
#98 = VECTOR ( 'NONE', #185, 1000.000000000000000 ) ;
#99 = ORIENTED_EDGE ( 'NONE', *, *, #288, .F. ) ;
#100 = AXIS2_PLACEMENT_3D ( 'NONE', #49, #289, #249 ) ;
#101 = PERSON_AND_ORGANIZATION ( #269, #75 ) ;
#102 = DIRECTION ( 'NONE',  ( -0.0000000000000000000, 1.224646799147353207E-16, -1.000000000000000000 ) ) ;
#103 = AXIS2_PLACEMENT_3D ( 'NONE', #38, #271, #248 ) ;
#104 = LINE ( 'NONE', #293, #223 ) ;
#105 = ORIENTED_EDGE ( 'NONE', *, *, #191, .T. ) ;
#106 = PRODUCT ( 'TTN206066-E0W', 'TTN206066-E0W', '', ( #212 ) ) ;
#107 = CARTESIAN_POINT ( 'NONE',  ( 0.0000000000000000000, 0.0000000000000000000, 0.0000000000000000000 ) ) ;
#108 = DIRECTION ( 'NONE',  ( 0.0000000000000000000, -1.000000000000000000, -1.387778780781446169E-16 ) ) ;
#109 = AXIS2_PLACEMENT_3D ( 'NONE', #275, #22, #188 ) ;
#110 = DIRECTION ( 'NONE',  ( 0.0000000000000000000, -1.000000000000000000, -1.387778780781446169E-16 ) ) ;
#111 = CARTESIAN_POINT ( 'NONE',  ( 1.543054966925664878E-15, -12.49999999999999645, 1.999999999999997335 ) ) ;
#112 = EDGE_LOOP ( 'NONE', ( #129, #105, #244, #226 ) ) ;
#113 = DATE_TIME_ROLE ( 'classification_date' ) ;
#114 = DIRECTION ( 'NONE',  ( 0.0000000000000000000, -1.000000000000000000, -1.208642382658147351E-16 ) ) ;
#115 =( NAMED_UNIT ( * ) SI_UNIT ( $, .STERADIAN. ) SOLID_ANGLE_UNIT ( ) );
#116 = CARTESIAN_POINT ( 'NONE',  ( 1.555301434917138433E-15, -12.69999999999999929, 1.799999999999998934 ) ) ;
#117 = ADVANCED_FACE ( 'NONE', ( #257 ), #274, .T. ) ;
#118 = CC_DESIGN_APPROVAL ( #171, ( #91 ) ) ;
#119 = EDGE_LOOP ( 'NONE', ( #81, #258 ) ) ;
#120 = CIRCLE ( 'NONE', #96, 12.49999999999999645 ) ;
#121 = EDGE_LOOP ( 'NONE', ( #83, #44, #41, #211 ) ) ;
#122 = FACE_OUTER_BOUND ( 'NONE', #166, .T. ) ;
#123 = EDGE_CURVE ( 'NONE', #35, #144, #299, .T. ) ;
#124 = COORDINATED_UNIVERSAL_TIME_OFFSET ( 5, 0, .BEHIND. ) ;
#125 = VECTOR ( 'NONE', #102, 1000.000000000000000 ) ;
#126 = CARTESIAN_POINT ( 'NONE',  ( 1.555301434917138433E-15, -12.69999999999999929, -0.7260970764415000112 ) ) ;
#127 = CARTESIAN_POINT ( 'NONE',  ( 0.0000000000000000000, 1.016456843292303500E-16, -2.000000000000000000 ) ) ;
#128 = DIRECTION ( 'NONE',  ( 1.000000000000000000, 0.0000000000000000000, 0.0000000000000000000 ) ) ;
#129 = ORIENTED_EDGE ( 'NONE', *, *, #42, .T. ) ;
#130 = CARTESIAN_POINT ( 'NONE',  ( 0.0000000000000000000, 12.55857864376271671, -0.8675184326788066835 ) ) ;
#131 = CARTESIAN_POINT ( 'NONE',  ( 0.0000000000000000000, 12.49999999999999645, 2.000000000000000888 ) ) ;
#132 = AXIS2_PLACEMENT_3D ( 'NONE', #71, #48, #201 ) ;
#133 = DIRECTION ( 'NONE',  ( 0.0000000000000000000, -1.224646799147353207E-16, 1.000000000000000000 ) ) ;
#134 = MANIFOLD_SOLID_BREP ( 'TTN206040-1-solid1', #243 ) ;
#135 = APPROVAL_STATUS ( 'not_yet_approved' ) ;
#136 = LOCAL_TIME ( 15, 19, 16.00000000000000000, #221 ) ;
#137 = CARTESIAN_POINT ( 'NONE',  ( 1.555301434917138433E-15, -12.69999999999999929, 1.799999999999998934 ) ) ;
#138 = ORIENTED_EDGE ( 'NONE', *, *, #78, .F. ) ;
#139 = APPROVAL_ROLE ( '' ) ;
#140 = CARTESIAN_POINT ( 'NONE',  ( 0.0000000000000000000, -1.254895575086292653E-14, 68.20000000000000284 ) ) ;
#141 = EDGE_CURVE ( 'NONE', #220, #150, #195, .T. ) ;
#142 = PLANE ( 'NONE',  #59 ) ;
#143 = AXIS2_PLACEMENT_3D ( 'NONE', #127, #63, #86 ) ;
#144 = VERTEX_POINT ( 'NONE', #126 ) ;
#145 = FACE_OUTER_BOUND ( 'NONE', #214, .T. ) ;
#146 = APPROVAL ( #203, 'UNSPECIFIED' ) ;
#147 = ORIENTED_EDGE ( 'NONE', *, *, #162, .F. ) ;
#148 = ORIENTED_EDGE ( 'NONE', *, *, #3, .T. ) ;
#149 = CC_DESIGN_PERSON_AND_ORGANIZATION_ASSIGNMENT ( #170, #15, ( #106 ) ) ;
#150 = VERTEX_POINT ( 'NONE', #111 ) ;
#151 = PERSON_AND_ORGANIZATION ( #269, #75 ) ;
#152 = ORIENTED_EDGE ( 'NONE', *, *, #239, .T. ) ;
#153 = APPROVAL_PERSON_ORGANIZATION ( #280, #146, #88 ) ;
#154 = EDGE_CURVE ( 'NONE', #150, #220, #120, .T. ) ;
#155 = DIRECTION ( 'NONE',  ( 0.0000000000000000000, 1.000000000000000000, 1.976892850116019442E-16 ) ) ;
#156 = DATE_AND_TIME ( #265, #208 ) ;
#157 = DIRECTION ( 'NONE',  ( 0.0000000000000000000, 1.000000000000000000, 1.976892850116019442E-16 ) ) ;
#158 = DIRECTION ( 'NONE',  ( 0.0000000000000000000, 0.0000000000000000000, 1.000000000000000000 ) ) ;
#159 = CIRCLE ( 'NONE', #238, 12.55857864376269006 ) ;
#160 = DIRECTION ( 'NONE',  ( 8.659560562355009279E-17, -0.7071067811865535679, -0.7071067811865415775 ) ) ;
#161 = COORDINATED_UNIVERSAL_TIME_OFFSET ( 5, 0, .BEHIND. ) ;
#162 = EDGE_CURVE ( 'NONE', #35, #262, #213, .T. ) ;
#163 = DIRECTION ( 'NONE',  ( -1.224646799147353207E-16, 1.000000000000000000, 0.0000000000000000000 ) ) ;
#164 = ADVANCED_FACE ( 'NONE', ( #66 ), #52, .T. ) ;
#165 = AXIS2_PLACEMENT_3D ( 'NONE', #16, #12, #291 ) ;
#166 = EDGE_LOOP ( 'NONE', ( #147, #256, #216 ) ) ;
#167 = DATE_AND_TIME ( #36, #224 ) ;
#168 = CC_DESIGN_DATE_AND_TIME_ASSIGNMENT ( #9, #267, ( #242 ) ) ;
#169 = APPROVAL_PERSON_ORGANIZATION ( #19, #261, #236 ) ;
#170 = PERSON_AND_ORGANIZATION ( #269, #75 ) ;
#171 = APPROVAL ( #135, 'UNSPECIFIED' ) ;
#172 = EDGE_CURVE ( 'NONE', #144, #194, #290, .T. ) ;
#173 = PERSON_AND_ORGANIZATION ( #269, #75 ) ;
#174 = AXIS2_PLACEMENT_3D ( 'NONE', #107, #158, #128 ) ;
#175 = CIRCLE ( 'NONE', #109, 12.55857864376269006 ) ;
#176 = EDGE_CURVE ( 'NONE', #35, #23, #175, .T. ) ;
#177 = ADVANCED_BREP_SHAPE_REPRESENTATION ( 'TTN206066-E0W', ( #134, #174 ), #76 ) ;
#178 = CARTESIAN_POINT ( 'NONE',  ( 0.0000000000000000000, -3.704330832209723230E-17, -0.8675184326788077938 ) ) ;
#179 = APPLICATION_PROTOCOL_DEFINITION ( 'international standard', 'config_control_design', 1994, #231 ) ;
#180 = CARTESIAN_POINT ( 'NONE',  ( 0.0000000000000000000, -1.254895575086292653E-14, 68.20000000000000284 ) ) ;
#181 = PERSON_AND_ORGANIZATION_ROLE ( 'creator' ) ;
#182 = LINE ( 'NONE', #137, #54 ) ;
#183 = DIRECTION ( 'NONE',  ( 0.0000000000000000000, -1.224646799147353207E-16, 1.000000000000000000 ) ) ;
#184 = PERSON_AND_ORGANIZATION_ROLE ( 'classification_officer' ) ;
#185 = DIRECTION ( 'NONE',  ( 0.0000000000000000000, -0.7071067811865487940, 0.7071067811865463515 ) ) ;
#186 = ORIENTED_EDGE ( 'NONE', *, *, #191, .F. ) ;
#187 = EDGE_LOOP ( 'NONE', ( #217, #58, #73 ) ) ;
#188 = DIRECTION ( 'NONE',  ( 0.0000000000000000000, 1.000000000000000000, 1.208642382658147351E-16 ) ) ;
#189 = VERTEX_POINT ( 'NONE', #116 ) ;
#190 = FACE_OUTER_BOUND ( 'NONE', #121, .T. ) ;
#191 = EDGE_CURVE ( 'NONE', #189, #144, #266, .T. ) ;
#192 = EDGE_LOOP ( 'NONE', ( #264, #11, #17, #7 ) ) ;
#193 = PERSON_AND_ORGANIZATION ( #269, #75 ) ;
#194 = VERTEX_POINT ( 'NONE', #228 ) ;
#195 = CIRCLE ( 'NONE', #65, 12.49999999999999645 ) ;
#196 = AXIS2_PLACEMENT_3D ( 'NONE', #180, #235, #157 ) ;
#197 = FACE_OUTER_BOUND ( 'NONE', #119, .T. ) ;
#198 = CARTESIAN_POINT ( 'NONE',  ( 1.537982313792428661E-15, 12.55857864376269006, -0.8675184326788062394 ) ) ;
#199 = CC_DESIGN_PERSON_AND_ORGANIZATION_ASSIGNMENT ( #151, #13, ( #91 ) ) ;
#200 = DESIGN_CONTEXT ( 'detailed design', #231, 'design' ) ;
#201 = DIRECTION ( 'NONE',  ( 0.0000000000000000000, -1.000000000000000000, -1.195183497228115281E-16 ) ) ;
#202 = ORIENTED_EDGE ( 'NONE', *, *, #78, .T. ) ;
#203 = APPROVAL_STATUS ( 'not_yet_approved' ) ;
#204 = EDGE_CURVE ( 'NONE', #23, #194, #82, .T. ) ;
#205 = DIRECTION ( 'NONE',  ( -0.0000000000000000000, 1.224646799147353207E-16, -1.000000000000000000 ) ) ;
#206 = DIRECTION ( 'NONE',  ( -0.0000000000000000000, 1.224646799147353947E-16, -1.000000000000000000 ) ) ;
#207 = CC_DESIGN_PERSON_AND_ORGANIZATION_ASSIGNMENT ( #101, #181, ( #242 ) ) ;
#208 = LOCAL_TIME ( 15, 19, 16.00000000000000000, #79 ) ;
#209 = CARTESIAN_POINT ( 'NONE',  ( 0.0000000000000000000, -3.637200993467638614E-16, 1.800000000000000488 ) ) ;
#210 = ADVANCED_FACE ( 'NONE', ( #197 ), #142, .T. ) ;
#211 = ORIENTED_EDGE ( 'NONE', *, *, #123, .F. ) ;
#212 = MECHANICAL_CONTEXT ( 'NONE', #276, 'mechanical' ) ;
#213 = CIRCLE ( 'NONE', #1, 70.20000000000000284 ) ;
#214 = EDGE_LOOP ( 'NONE', ( #20, #202, #70, #99 ) ) ;
#215 = CC_DESIGN_APPROVAL ( #146, ( #242 ) ) ;
#216 = ORIENTED_EDGE ( 'NONE', *, *, #263, .T. ) ;
#217 = ORIENTED_EDGE ( 'NONE', *, *, #85, .T. ) ;
#218 = SECURITY_CLASSIFICATION ( '', '', #292 ) ;
#219 = APPROVAL_DATE_TIME ( #167, #146 ) ;
#220 = VERTEX_POINT ( 'NONE', #131 ) ;
#221 = COORDINATED_UNIVERSAL_TIME_OFFSET ( 5, 0, .BEHIND. ) ;
#222 = AXIS2_PLACEMENT_3D ( 'NONE', #68, #295, #155 ) ;
#223 = VECTOR ( 'NONE', #233, 1000.000000000000000 ) ;
#224 = LOCAL_TIME ( 15, 19, 16.00000000000000000, #284 ) ;
#225 = DIRECTION ( 'NONE',  ( 0.0000000000000000000, 1.000000000000000000, 1.208642382658147351E-16 ) ) ;
#226 = ORIENTED_EDGE ( 'NONE', *, *, #3, .F. ) ;
#227 = PRODUCT_DEFINITION_SHAPE ( 'NONE', 'NONE',  #242 ) ;
#228 = CARTESIAN_POINT ( 'NONE',  ( 0.0000000000000000000, 12.69999999999999929, -0.7260970764414970136 ) ) ;
#229 = APPLICATION_PROTOCOL_DEFINITION ( 'international standard', 'config_control_design', 1994, #276 ) ;
#230 = LOCAL_TIME ( 15, 19, 16.00000000000000000, #124 ) ;
#231 = APPLICATION_CONTEXT ( 'configuration controlled 3d designs of mechanical parts and assemblies' ) ;
#232 = SPHERICAL_SURFACE ( 'NONE', #222, 70.20000000000000284 ) ;
#233 = DIRECTION ( 'NONE',  ( -0.0000000000000000000, 1.224646799147353207E-16, -1.000000000000000000 ) ) ;
#234 = PERSON_AND_ORGANIZATION_ROLE ( 'creator' ) ;
#235 = DIRECTION ( 'NONE',  ( 1.000000000000000000, 0.0000000000000000000, -0.0000000000000000000 ) ) ;
#236 = APPROVAL_ROLE ( '' ) ;
#237 = EDGE_LOOP ( 'NONE', ( #186, #152, #148, #10 ) ) ;
#238 = AXIS2_PLACEMENT_3D ( 'NONE', #178, #205, #225 ) ;
#239 = EDGE_CURVE ( 'NONE', #189, #26, #285, .T. ) ;
#240 = PERSON_AND_ORGANIZATION ( #269, #75 ) ;
#241 = FACE_OUTER_BOUND ( 'NONE', #187, .T. ) ;
#242 = PRODUCT_DEFINITION ( 'UNKNOWN', '', #91, #200 ) ;
#243 = CLOSED_SHELL ( 'NONE', ( #294, #51, #45, #278, #94, #210, #117, #95, #164 ) ) ;
#244 = ORIENTED_EDGE ( 'NONE', *, *, #27, .F. ) ;
#245 = CALENDAR_DATE ( 2020, 17, 1 ) ;
#246 = VECTOR ( 'NONE', #87, 1000.000000000000000 ) ;
#247 = CC_DESIGN_DATE_AND_TIME_ASSIGNMENT ( #89, #113, ( #218 ) ) ;
#248 = DIRECTION ( 'NONE',  ( 0.0000000000000000000, 1.000000000000000000, 1.195183497228115281E-16 ) ) ;
#249 = DIRECTION ( 'NONE',  ( 0.0000000000000000000, 0.0000000000000000000, 1.000000000000000000 ) ) ;
#250 = CARTESIAN_POINT ( 'NONE',  ( 0.0000000000000000000, -3.637200993467638614E-16, 1.800000000000000488 ) ) ;
#251 =( NAMED_UNIT ( * ) PLANE_ANGLE_UNIT ( ) SI_UNIT ( $, .RADIAN. ) );
#252 = CARTESIAN_POINT ( 'NONE',  ( 1.537982313792432013E-15, -12.55857864376272026, -0.8675184326788082378 ) ) ;
#253 = APPROVAL_PERSON_ORGANIZATION ( #240, #171, #139 ) ;
#254 = DIRECTION ( 'NONE',  ( 0.0000000000000000000, -1.224646799147353207E-16, 1.000000000000000000 ) ) ;
#255 =( LENGTH_UNIT ( ) NAMED_UNIT ( * ) SI_UNIT ( .MILLI., .METRE. ) );
#256 = ORIENTED_EDGE ( 'NONE', *, *, #176, .T. ) ;
#257 = FACE_OUTER_BOUND ( 'NONE', #237, .T. ) ;
#258 = ORIENTED_EDGE ( 'NONE', *, *, #154, .T. ) ;
#259 = DATE_AND_TIME ( #53, #136 ) ;
#260 = ORIENTED_EDGE ( 'NONE', *, *, #288, .T. ) ;
#261 = APPROVAL ( #297, 'UNSPECIFIED' ) ;
#262 = VERTEX_POINT ( 'NONE', #43 ) ;
#263 = EDGE_CURVE ( 'NONE', #23, #262, #300, .T. ) ;
#264 = ORIENTED_EDGE ( 'NONE', *, *, #204, .F. ) ;
#265 = CALENDAR_DATE ( 2020, 17, 1 ) ;
#266 = LINE ( 'NONE', #25, #125 ) ;
#267 = DATE_TIME_ROLE ( 'creation_date' ) ;
#268 = DIRECTION ( 'NONE',  ( 0.0000000000000000000, -1.224646799147353207E-16, 1.000000000000000000 ) ) ;
#269 = PERSON ( 'UNSPECIFIED', 'UNSPECIFIED', 'UNSPECIFIED', ('UNSPECIFIED'), ('UNSPECIFIED'), ('UNSPECIFIED') ) ;
#270 = DIRECTION ( 'NONE',  ( 0.0000000000000000000, -1.000000000000000000, -1.224646799147353207E-16 ) ) ;
#271 = DIRECTION ( 'NONE',  ( -0.0000000000000000000, 1.224646799147353207E-16, -1.000000000000000000 ) ) ;
#272 = DIRECTION ( 'NONE',  ( 0.0000000000000000000, 0.7071067811865536790, -0.7071067811865413555 ) ) ;
#273 = CARTESIAN_POINT ( 'NONE',  ( 0.0000000000000000000, -3.704330832209723230E-17, -0.8675184326788077938 ) ) ;
#274 = CYLINDRICAL_SURFACE ( 'NONE', #143, 12.69999999999999929 ) ;
#275 = CARTESIAN_POINT ( 'NONE',  ( 0.0000000000000000000, -3.704330832209723230E-17, -0.8675184326788077938 ) ) ;
#276 = APPLICATION_CONTEXT ( 'configuration controlled 3d designs of mechanical parts and assemblies' ) ;
#277 = DIRECTION ( 'NONE',  ( 0.0000000000000000000, 1.000000000000000000, 1.195183497228115281E-16 ) ) ;
#278 = ADVANCED_FACE ( 'NONE', ( #241 ), #232, .T. ) ;
#279 = CC_DESIGN_SECURITY_CLASSIFICATION ( #218, ( #91 ) ) ;
#280 = PERSON_AND_ORGANIZATION ( #269, #75 ) ;
#281 = CALENDAR_DATE ( 2020, 17, 1 ) ;
#282 = CIRCLE ( 'NONE', #103, 12.69999999999999929 ) ;
#283 = CC_DESIGN_PERSON_AND_ORGANIZATION_ASSIGNMENT ( #193, #234, ( #91 ) ) ;
#284 = COORDINATED_UNIVERSAL_TIME_OFFSET ( 5, 0, .BEHIND. ) ;
#285 = CIRCLE ( 'NONE', #74, 12.69999999999999929 ) ;
#286 = SPHERICAL_SURFACE ( 'NONE', #196, 70.20000000000000284 ) ;
#287 = DIRECTION ( 'NONE',  ( 0.0000000000000000000, 1.000000000000000000, 1.195183497228115281E-16 ) ) ;
#288 = EDGE_CURVE ( 'NONE', #220, #26, #77, .T. ) ;
#289 = DIRECTION ( 'NONE',  ( -1.000000000000000000, 0.0000000000000000000, 0.0000000000000000000 ) ) ;
#290 = CIRCLE ( 'NONE', #24, 12.69999999999999929 ) ;
#291 = DIRECTION ( 'NONE',  ( 0.0000000000000000000, 1.000000000000000000, 1.365923996832131609E-16 ) ) ;
#292 = SECURITY_CLASSIFICATION_LEVEL ( 'unclassified' ) ;
#293 = CARTESIAN_POINT ( 'NONE',  ( 0.0000000000000000000, 12.69999999999999929, -1.999999999999998224 ) ) ;
#294 = ADVANCED_FACE ( 'NONE', ( #145 ), #4, .T. ) ;
#295 = DIRECTION ( 'NONE',  ( 1.000000000000000000, 0.0000000000000000000, -0.0000000000000000000 ) ) ;
#296 = DIRECTION ( 'NONE',  ( 1.000000000000000000, 1.224646799147353207E-16, 1.499759782661857608E-32 ) ) ;
#297 = APPROVAL_STATUS ( 'not_yet_approved' ) ;
#298 = DIRECTION ( 'NONE',  ( -0.0000000000000000000, 1.224646799147353207E-16, -1.000000000000000000 ) ) ;
#299 = LINE ( 'NONE', #14, #98 ) ;
#300 = CIRCLE ( 'NONE', #100, 70.20000000000000284 ) ;
#301 = LOCAL_TIME ( 15, 19, 16.00000000000000000, #161 ) ;
ENDSEC;
END-ISO-10303-21;
