ISO-10303-21;
HEADER;
FILE_DESCRIPTION (( 'STEP AP203' ),
    '1' );
FILE_NAME ('Web Model 19307_19308.step',
    '2021-08-23T19:35:56',
    ( '' ),
    ( '' ),
    'SwSTEP 2.0',
    'SolidWorks 2018',
    '' );
FILE_SCHEMA (( 'CONFIG_CONTROL_DESIGN' ));
ENDSEC;

DATA;
#1 = FACE_OUTER_BOUND ( 'NONE', #93, .T. ) ;
#2 = ORIENTED_EDGE ( 'NONE', *, *, #208, .T. ) ;
#3 = ORIENTED_EDGE ( 'NONE', *, *, #208, .F. ) ;
#4 = LINE ( 'NONE', #345, #270 ) ;
#5 = VERTEX_POINT ( 'NONE', #110 ) ;
#6 = AXIS2_PLACEMENT_3D ( 'NONE', #232, #198, #229 ) ;
#7 = CYLINDRICAL_SURFACE ( 'NONE', #412, 0.5461000000000006960 ) ;
#8 = ORIENTED_EDGE ( 'NONE', *, *, #360, .T. ) ;
#9 = EDGE_CURVE ( 'NONE', #395, #392, #241, .T. ) ;
#10 = CARTESIAN_POINT ( 'NONE',  ( 8.486100000000002197, 6.687796170143712733E-17, 0.000000000000000000 ) ) ;
#11 = FACE_OUTER_BOUND ( 'NONE', #128, .T. ) ;
#12 = ORIENTED_EDGE ( 'NONE', *, *, #67, .T. ) ;
#13 = DIRECTION ( 'NONE',  ( -0.000000000000000000, -0.000000000000000000, -1.000000000000000000 ) ) ;
#14 = DIRECTION ( 'NONE',  ( 1.000000000000000000, 0.000000000000000000, 0.000000000000000000 ) ) ;
#15 = CC_DESIGN_PERSON_AND_ORGANIZATION_ASSIGNMENT ( #222, #195, ( #209 ) ) ;
#16 = CIRCLE ( 'NONE', #89, 0.5460999999999999188 ) ;
#17 = CARTESIAN_POINT ( 'NONE',  ( -7.393900000000001249, 6.687796170143695477E-17, 3.180000000000000160 ) ) ;
#18 = ORIENTED_EDGE ( 'NONE', *, *, #265, .F. ) ;
#19 = CARTESIAN_POINT ( 'NONE',  ( -8.486100000000002197, 0.000000000000000000, 0.000000000000000000 ) ) ;
#20 = AXIS2_PLACEMENT_3D ( 'NONE', #155, #51, #185 ) ;
#21 = DIRECTION ( 'NONE',  ( -1.000000000000000000, 0.000000000000000000, 0.000000000000000000 ) ) ;
#22 = CARTESIAN_POINT ( 'NONE',  ( -6.349999999999999645, 0.000000000000000000, 3.180000000000000160 ) ) ;
#23 = CARTESIAN_POINT ( 'NONE',  ( 0.000000000000000000, 0.000000000000000000, 3.180000000000000160 ) ) ;
#24 = DIRECTION ( 'NONE',  ( 1.000000000000000000, 0.000000000000000000, 0.000000000000000000 ) ) ;
#25 = CALENDAR_DATE ( 2021, 23, 8 ) ;
#26 = APPROVAL_PERSON_ORGANIZATION ( #107, #266, #290 ) ;
#27 = CIRCLE ( 'NONE', #6, 0.5461000000000006960 ) ;
#28 = ORIENTED_EDGE ( 'NONE', *, *, #158, .T. ) ;
#29 = PRODUCT_DEFINITION_FORMATION_WITH_SPECIFIED_SOURCE ( 'ANY', '', #312, .NOT_KNOWN. ) ;
#30 = DATE_AND_TIME ( #53, #95 ) ;
#31 = COORDINATED_UNIVERSAL_TIME_OFFSET ( 5, 0, .BEHIND. ) ;
#32 = APPLICATION_CONTEXT ( 'configuration controlled 3d designs of mechanical parts and assemblies' ) ;
#33 = CIRCLE ( 'NONE', #44, 6.349999999999999645 ) ;
#34 = ORIENTED_EDGE ( 'NONE', *, *, #366, .T. ) ;
#35 = CARTESIAN_POINT ( 'NONE',  ( 0.000000000000000000, 0.000000000000000000, 3.180000000000000160 ) ) ;
#36 = DESIGN_CONTEXT ( 'detailed design', #32, 'design' ) ;
#37 = APPROVAL_STATUS ( 'not_yet_approved' ) ;
#38 =( NAMED_UNIT ( * ) SI_UNIT ( $, .STERADIAN. ) SOLID_ANGLE_UNIT ( ) );
#39 = VERTEX_POINT ( 'NONE', #19 ) ;
#40 =( NAMED_UNIT ( * ) PLANE_ANGLE_UNIT ( ) SI_UNIT ( $, .RADIAN. ) );
#41 = EDGE_LOOP ( 'NONE', ( #140, #3 ) ) ;
#42 = AXIS2_PLACEMENT_3D ( 'NONE', #303, #336, #73 ) ;
#43 = CARTESIAN_POINT ( 'NONE',  ( 0.000000000000000000, 0.000000000000000000, 0.000000000000000000 ) ) ;
#44 = AXIS2_PLACEMENT_3D ( 'NONE', #48, #115, #14 ) ;
#45 = FACE_OUTER_BOUND ( 'NONE', #41, .T. ) ;
#46 = ORIENTED_EDGE ( 'NONE', *, *, #94, .F. ) ;
#47 = DIRECTION ( 'NONE',  ( 0.000000000000000000, 0.000000000000000000, 1.000000000000000000 ) ) ;
#48 = CARTESIAN_POINT ( 'NONE',  ( 0.000000000000000000, 0.000000000000000000, 3.180000000000000160 ) ) ;
#49 = ADVANCED_FACE ( 'NONE', ( #310 ), #207, .T. ) ;
#50 = DIRECTION ( 'NONE',  ( 1.000000000000000000, 0.000000000000000000, 0.000000000000000000 ) ) ;
#51 = DIRECTION ( 'NONE',  ( 0.000000000000000000, 0.000000000000000000, 1.000000000000000000 ) ) ;
#52 = EDGE_CURVE ( 'NONE', #395, #5, #271, .T. ) ;
#53 = CALENDAR_DATE ( 2021, 23, 8 ) ;
#54 = CARTESIAN_POINT ( 'NONE',  ( -7.940000000000001279, 0.000000000000000000, 0.000000000000000000 ) ) ;
#55 = LINE ( 'NONE', #371, #165 ) ;
#56 = DIRECTION ( 'NONE',  ( -0.000000000000000000, -0.000000000000000000, -1.000000000000000000 ) ) ;
#57 = EDGE_CURVE ( 'NONE', #332, #105, #55, .T. ) ;
#58 = CARTESIAN_POINT ( 'NONE',  ( 0.000000000000000000, 0.000000000000000000, 3.180000000000000160 ) ) ;
#59 = CIRCLE ( 'NONE', #297, 9.524999999999998579 ) ;
#60 = ORIENTED_EDGE ( 'NONE', *, *, #163, .F. ) ;
#61 = CC_DESIGN_APPROVAL ( #266, ( #219 ) ) ;
#62 = ORIENTED_EDGE ( 'NONE', *, *, #163, .T. ) ;
#63 = EDGE_LOOP ( 'NONE', ( #374, #338, #12, #289 ) ) ;
#64 = CARTESIAN_POINT ( 'NONE',  ( 0.000000000000000000, 0.000000000000000000, -0.002000000000000000042 ) ) ;
#65 = FACE_OUTER_BOUND ( 'NONE', #362, .T. ) ;
#66 = CIRCLE ( 'NONE', #351, 6.349999999999999645 ) ;
#67 = EDGE_CURVE ( 'NONE', #5, #221, #160, .T. ) ;
#68 = DATE_AND_TIME ( #25, #256 ) ;
#69 = ORIENTED_EDGE ( 'NONE', *, *, #9, .T. ) ;
#70 = ORIENTED_EDGE ( 'NONE', *, *, #173, .T. ) ;
#71 = PERSON_AND_ORGANIZATION_ROLE ( 'design_owner' ) ;
#72 = PERSON_AND_ORGANIZATION_ROLE ( 'creator' ) ;
#73 = DIRECTION ( 'NONE',  ( 1.000000000000000000, 0.000000000000000000, 0.000000000000000000 ) ) ;
#74 = APPROVAL_PERSON_ORGANIZATION ( #386, #333, #137 ) ;
#75 = VERTEX_POINT ( 'NONE', #236 ) ;
#76 = CARTESIAN_POINT ( 'NONE',  ( 0.000000000000000000, 0.000000000000000000, 3.180000000000000160 ) ) ;
#77 = DIRECTION ( 'NONE',  ( 1.000000000000000000, 0.000000000000000000, 0.000000000000000000 ) ) ;
#78 = CARTESIAN_POINT ( 'NONE',  ( 8.486100000000002197, 6.687796170143707803E-17, 3.180000000000000160 ) ) ;
#79 = ADVANCED_FACE ( 'NONE', ( #415 ), #161, .F. ) ;
#80 = DIRECTION ( 'NONE',  ( 0.000000000000000000, 0.000000000000000000, 1.000000000000000000 ) ) ;
#81 = CYLINDRICAL_SURFACE ( 'NONE', #326, 0.5461000000000006960 ) ;
#82 = ORIENTED_EDGE ( 'NONE', *, *, #407, .T. ) ;
#83 = CARTESIAN_POINT ( 'NONE',  ( 0.000000000000000000, 0.000000000000000000, -0.002000000000000000042 ) ) ;
#84 = ORIENTED_EDGE ( 'NONE', *, *, #265, .T. ) ;
#85 = DIRECTION ( 'NONE',  ( 1.000000000000000000, 0.000000000000000000, 0.000000000000000000 ) ) ;
#86 = DIRECTION ( 'NONE',  ( -0.000000000000000000, -0.000000000000000000, -1.000000000000000000 ) ) ;
#87 = DIRECTION ( 'NONE',  ( -0.000000000000000000, -0.000000000000000000, -1.000000000000000000 ) ) ;
#88 = VECTOR ( 'NONE', #56, 1000.000000000000000 ) ;
#89 = AXIS2_PLACEMENT_3D ( 'NONE', #378, #118, #24 ) ;
#90 = AXIS2_PLACEMENT_3D ( 'NONE', #35, #328, #166 ) ;
#91 = FACE_OUTER_BOUND ( 'NONE', #197, .T. ) ;
#92 = ORIENTED_EDGE ( 'NONE', *, *, #348, .T. ) ;
#93 = EDGE_LOOP ( 'NONE', ( #220, #34 ) ) ;
#94 = EDGE_CURVE ( 'NONE', #75, #176, #402, .T. ) ;
#95 = LOCAL_TIME ( 15, 35, 56.00000000000000000, #132 ) ;
#96 = LINE ( 'NONE', #278, #88 ) ;
#97 = DIRECTION ( 'NONE',  ( 0.000000000000000000, 0.000000000000000000, 1.000000000000000000 ) ) ;
#98 = DIRECTION ( 'NONE',  ( 1.000000000000000000, 0.000000000000000000, 0.000000000000000000 ) ) ;
#99 = AXIS2_PLACEMENT_3D ( 'NONE', #377, #335, #340 ) ;
#100 = APPROVAL_STATUS ( 'not_yet_approved' ) ;
#101 = PERSON_AND_ORGANIZATION_ROLE ( 'design_supplier' ) ;
#102 = PERSON_AND_ORGANIZATION ( #124, #190 ) ;
#103 = AXIS2_PLACEMENT_3D ( 'NONE', #200, #144, #175 ) ;
#104 = EDGE_LOOP ( 'NONE', ( #230, #179 ) ) ;
#105 = VERTEX_POINT ( 'NONE', #142 ) ;
#106 = DIRECTION ( 'NONE',  ( 0.000000000000000000, 0.000000000000000000, 1.000000000000000000 ) ) ;
#107 = PERSON_AND_ORGANIZATION ( #124, #190 ) ;
#108 = CARTESIAN_POINT ( 'NONE',  ( 0.000000000000000000, 0.000000000000000000, 0.000000000000000000 ) ) ;
#109 = DIRECTION ( 'NONE',  ( -0.000000000000000000, -0.000000000000000000, -1.000000000000000000 ) ) ;
#110 = CARTESIAN_POINT ( 'NONE',  ( 7.393900000000000361, 0.000000000000000000, 3.180000000000000160 ) ) ;
#111 = CYLINDRICAL_SURFACE ( 'NONE', #103, 0.5461000000000006960 ) ;
#112 = EDGE_LOOP ( 'NONE', ( #84, #231 ) ) ;
#113 = DIRECTION ( 'NONE',  ( -0.000000000000000000, -0.000000000000000000, -1.000000000000000000 ) ) ;
#114 = ORIENTED_EDGE ( 'NONE', *, *, #227, .T. ) ;
#115 = DIRECTION ( 'NONE',  ( 0.000000000000000000, 0.000000000000000000, 1.000000000000000000 ) ) ;
#116 = CARTESIAN_POINT ( 'NONE',  ( 7.940000000000001279, 0.000000000000000000, 0.000000000000000000 ) ) ;
#117 = DIRECTION ( 'NONE',  ( -1.000000000000000000, 0.000000000000000000, 0.000000000000000000 ) ) ;
#118 = DIRECTION ( 'NONE',  ( 0.000000000000000000, 0.000000000000000000, 1.000000000000000000 ) ) ;
#119 = EDGE_CURVE ( 'NONE', #154, #105, #66, .T. ) ;
#120 = DIRECTION ( 'NONE',  ( -0.000000000000000000, -0.000000000000000000, -1.000000000000000000 ) ) ;
#121 = DIRECTION ( 'NONE',  ( 0.000000000000000000, 0.000000000000000000, 1.000000000000000000 ) ) ;
#122 = CIRCLE ( 'NONE', #130, 6.349999999999999645 ) ;
#123 = DIRECTION ( 'NONE',  ( -1.000000000000000000, 0.000000000000000000, 0.000000000000000000 ) ) ;
#124 = PERSON ( 'UNSPECIFIED', 'UNSPECIFIED', 'UNSPECIFIED', ('UNSPECIFIED'), ('UNSPECIFIED'), ('UNSPECIFIED') ) ;
#125 = ADVANCED_FACE ( 'NONE', ( #196 ), #288, .F. ) ;
#126 = APPROVAL_DATE_TIME ( #399, #266 ) ;
#127 = EDGE_LOOP ( 'NONE', ( #346, #8, #253, #60 ) ) ;
#128 = EDGE_LOOP ( 'NONE', ( #243, #205, #390, #92 ) ) ;
#129 =( GEOMETRIC_REPRESENTATION_CONTEXT ( 3 ) GLOBAL_UNCERTAINTY_ASSIGNED_CONTEXT ( ( #225 ) ) GLOBAL_UNIT_ASSIGNED_CONTEXT ( ( #174, #40, #38 ) ) REPRESENTATION_CONTEXT ( 'NONE', 'WORKASPACE' ) );
#130 = AXIS2_PLACEMENT_3D ( 'NONE', #411, #410, #405 ) ;
#131 = DIRECTION ( 'NONE',  ( 0.000000000000000000, 0.000000000000000000, 1.000000000000000000 ) ) ;
#132 = COORDINATED_UNIVERSAL_TIME_OFFSET ( 5, 0, .BEHIND. ) ;
#133 = EDGE_LOOP ( 'NONE', ( #382, #62 ) ) ;
#134 = EDGE_LOOP ( 'NONE', ( #388, #199, #2, #46 ) ) ;
#135 = AXIS2_PLACEMENT_3D ( 'NONE', #64, #131, #98 ) ;
#136 = ORIENTED_EDGE ( 'NONE', *, *, #143, .T. ) ;
#137 = APPROVAL_ROLE ( '' ) ;
#138 = APPLICATION_CONTEXT ( 'configuration controlled 3d designs of mechanical parts and assemblies' ) ;
#139 = EDGE_CURVE ( 'NONE', #392, #221, #302, .T. ) ;
#140 = ORIENTED_EDGE ( 'NONE', *, *, #348, .F. ) ;
#141 = CARTESIAN_POINT ( 'NONE',  ( 0.000000000000000000, 0.000000000000000000, 0.000000000000000000 ) ) ;
#142 = CARTESIAN_POINT ( 'NONE',  ( 6.349999999999999645, 7.776507174585690191E-16, 0.000000000000000000 ) ) ;
#143 = EDGE_CURVE ( 'NONE', #325, #258, #16, .T. ) ;
#144 = DIRECTION ( 'NONE',  ( -0.000000000000000000, -0.000000000000000000, -1.000000000000000000 ) ) ;
#145 = DIRECTION ( 'NONE',  ( 1.000000000000000000, 0.000000000000000000, 0.000000000000000000 ) ) ;
#146 = CYLINDRICAL_SURFACE ( 'NONE', #188, 9.525000000000000355 ) ;
#147 = VECTOR ( 'NONE', #13, 1000.000000000000000 ) ;
#148 = CARTESIAN_POINT ( 'NONE',  ( -7.940000000000001279, 0.000000000000000000, 3.180000000000000160 ) ) ;
#149 = DIRECTION ( 'NONE',  ( 1.000000000000000000, 0.000000000000000000, 0.000000000000000000 ) ) ;
#150 = CARTESIAN_POINT ( 'NONE',  ( 7.393900000000000361, 0.000000000000000000, 3.180000000000000160 ) ) ;
#151 = EDGE_CURVE ( 'NONE', #296, #273, #96, .T. ) ;
#152 = AXIS2_PLACEMENT_3D ( 'NONE', #43, #106, #331 ) ;
#153 = DIRECTION ( 'NONE',  ( 1.000000000000000000, 0.000000000000000000, -0.000000000000000000 ) ) ;
#154 = VERTEX_POINT ( 'NONE', #234 ) ;
#155 = CARTESIAN_POINT ( 'NONE',  ( 0.000000000000000000, 0.000000000000000000, 3.180000000000000160 ) ) ;
#156 = DIRECTION ( 'NONE',  ( 0.000000000000000000, 0.000000000000000000, 1.000000000000000000 ) ) ;
#157 = DIRECTION ( 'NONE',  ( -0.000000000000000000, -0.000000000000000000, -1.000000000000000000 ) ) ;
#158 = EDGE_CURVE ( 'NONE', #75, #296, #344, .T. ) ;
#159 = CYLINDRICAL_SURFACE ( 'NONE', #280, 6.349999999999999645 ) ;
#160 = LINE ( 'NONE', #150, #249 ) ;
#161 = CYLINDRICAL_SURFACE ( 'NONE', #99, 0.5461000000000006960 ) ;
#162 = EDGE_LOOP ( 'NONE', ( #304, #182 ) ) ;
#163 = EDGE_CURVE ( 'NONE', #105, #154, #122, .T. ) ;
#164 = FACE_BOUND ( 'NONE', #104, .T. ) ;
#165 = VECTOR ( 'NONE', #113, 1000.000000000000000 ) ;
#166 = DIRECTION ( 'NONE',  ( 1.000000000000000000, 0.000000000000000000, -0.000000000000000000 ) ) ;
#167 = APPLICATION_PROTOCOL_DEFINITION ( 'international standard', 'config_control_design', 1994, #32 ) ;
#168 = CC_DESIGN_PERSON_AND_ORGANIZATION_ASSIGNMENT ( #102, #71, ( #312 ) ) ;
#169 = FACE_OUTER_BOUND ( 'NONE', #224, .T. ) ;
#170 = VERTEX_POINT ( 'NONE', #277 ) ;
#171 = ORIENTED_EDGE ( 'NONE', *, *, #67, .F. ) ;
#172 = APPROVAL_ROLE ( '' ) ;
#173 = EDGE_CURVE ( 'NONE', #258, #325, #281, .T. ) ;
#174 =( LENGTH_UNIT ( ) NAMED_UNIT ( * ) SI_UNIT ( .MILLI., .METRE. ) );
#175 = DIRECTION ( 'NONE',  ( -1.000000000000000000, 0.000000000000000000, 0.000000000000000000 ) ) ;
#176 = VERTEX_POINT ( 'NONE', #314 ) ;
#177 = AXIS2_PLACEMENT_3D ( 'NONE', #141, #370, #334 ) ;
#178 = DIRECTION ( 'NONE',  ( -1.000000000000000000, 0.000000000000000000, 0.000000000000000000 ) ) ;
#179 = ORIENTED_EDGE ( 'NONE', *, *, #173, .F. ) ;
#180 = ADVANCED_FACE ( 'NONE', ( #11 ), #146, .T. ) ;
#181 = DIRECTION ( 'NONE',  ( -0.000000000000000000, -0.000000000000000000, -1.000000000000000000 ) ) ;
#182 = ORIENTED_EDGE ( 'NONE', *, *, #360, .F. ) ;
#183 = DIRECTION ( 'NONE',  ( 1.000000000000000000, 0.000000000000000000, -0.000000000000000000 ) ) ;
#184 = CARTESIAN_POINT ( 'NONE',  ( -7.940000000000001279, 0.000000000000000000, 3.180000000000000160 ) ) ;
#185 = DIRECTION ( 'NONE',  ( 1.000000000000000000, 0.000000000000000000, 0.000000000000000000 ) ) ;
#186 = CALENDAR_DATE ( 2021, 23, 8 ) ;
#187 = EDGE_CURVE ( 'NONE', #296, #75, #387, .T. ) ;
#188 = AXIS2_PLACEMENT_3D ( 'NONE', #58, #87, #123 ) ;
#189 = ADVANCED_FACE ( 'NONE', ( #357 ), #211, .T. ) ;
#190 = ORGANIZATION ( 'UNSPECIFIED', 'UNSPECIFIED', '' ) ;
#191 = EDGE_LOOP ( 'NONE', ( #28, #359 ) ) ;
#192 = CC_DESIGN_DATE_AND_TIME_ASSIGNMENT ( #295, #294, ( #219 ) ) ;
#193 = AXIS2_PLACEMENT_3D ( 'NONE', #379, #238, #153 ) ;
#194 = EDGE_CURVE ( 'NONE', #170, #332, #33, .T. ) ;
#195 = PERSON_AND_ORGANIZATION_ROLE ( 'classification_officer' ) ;
#196 = FACE_OUTER_BOUND ( 'NONE', #127, .T. ) ;
#197 = EDGE_LOOP ( 'NONE', ( #204, #215, #320, #264 ) ) ;
#198 = DIRECTION ( 'NONE',  ( 0.000000000000000000, 0.000000000000000000, 1.000000000000000000 ) ) ;
#199 = ORIENTED_EDGE ( 'NONE', *, *, #151, .T. ) ;
#200 = CARTESIAN_POINT ( 'NONE',  ( 7.940000000000001279, 0.000000000000000000, 3.180000000000000160 ) ) ;
#201 = AXIS2_PLACEMENT_3D ( 'NONE', #76, #86, #375 ) ;
#202 = DIRECTION ( 'NONE',  ( 0.000000000000000000, 0.000000000000000000, 1.000000000000000000 ) ) ;
#203 = VECTOR ( 'NONE', #157, 1000.000000000000000 ) ;
#204 = ORIENTED_EDGE ( 'NONE', *, *, #194, .T. ) ;
#205 = ORIENTED_EDGE ( 'NONE', *, *, #158, .F. ) ;
#206 = PLANE ( 'NONE',  #283 ) ;
#207 = PLANE ( 'NONE',  #367 ) ;
#208 = EDGE_CURVE ( 'NONE', #273, #176, #59, .T. ) ;
#209 = SECURITY_CLASSIFICATION ( '', '', #262 ) ;
#210 = CARTESIAN_POINT ( 'NONE',  ( 6.349999999999999645, 7.776507174585690191E-16, 3.180000000000000160 ) ) ;
#211 = PLANE ( 'NONE',  #193 ) ;
#212 = DIRECTION ( 'NONE',  ( -0.000000000000000000, -0.000000000000000000, -1.000000000000000000 ) ) ;
#213 = PERSON_AND_ORGANIZATION ( #124, #190 ) ;
#214 = ORIENTED_EDGE ( 'NONE', *, *, #322, .T. ) ;
#215 = ORIENTED_EDGE ( 'NONE', *, *, #57, .T. ) ;
#216 = ADVANCED_BREP_SHAPE_REPRESENTATION ( 'Web Model 19307_19308', ( #259, #152 ), #129 ) ;
#217 = PERSON_AND_ORGANIZATION ( #124, #190 ) ;
#218 = CIRCLE ( 'NONE', #339, 0.5460999999999999188 ) ;
#219 = PRODUCT_DEFINITION ( 'UNKNOWN', '', #29, #36 ) ;
#220 = ORIENTED_EDGE ( 'NONE', *, *, #285, .T. ) ;
#221 = VERTEX_POINT ( 'NONE', #306 ) ;
#222 = PERSON_AND_ORGANIZATION ( #124, #190 ) ;
#223 = FACE_OUTER_BOUND ( 'NONE', #358, .T. ) ;
#224 = EDGE_LOOP ( 'NONE', ( #82, #69, #18, #171 ) ) ;
#225 = UNCERTAINTY_MEASURE_WITH_UNIT (LENGTH_MEASURE( 1.000000000000000082E-05 ), #174, 'distance_accuracy_value', 'NONE');
#226 = MECHANICAL_CONTEXT ( 'NONE', #138, 'mechanical' ) ;
#227 = EDGE_CURVE ( 'NONE', #325, #39, #4, .T. ) ;
#228 = CC_DESIGN_APPROVAL ( #333, ( #209 ) ) ;
#229 = DIRECTION ( 'NONE',  ( 1.000000000000000000, 0.000000000000000000, 0.000000000000000000 ) ) ;
#230 = ORIENTED_EDGE ( 'NONE', *, *, #143, .F. ) ;
#231 = ORIENTED_EDGE ( 'NONE', *, *, #139, .T. ) ;
#232 = CARTESIAN_POINT ( 'NONE',  ( 7.940000000000001279, 0.000000000000000000, 3.180000000000000160 ) ) ;
#233 = CARTESIAN_POINT ( 'NONE',  ( 8.486100000000002197, 6.687796170143712733E-17, 3.180000000000000160 ) ) ;
#234 = CARTESIAN_POINT ( 'NONE',  ( -6.349999999999999645, 0.000000000000000000, 0.000000000000000000 ) ) ;
#235 = CYLINDRICAL_SURFACE ( 'NONE', #201, 9.525000000000000355 ) ;
#236 = CARTESIAN_POINT ( 'NONE',  ( -9.525000000000000355, 0.000000000000000000, 3.180000000000000160 ) ) ;
#237 = CC_DESIGN_APPROVAL ( #252, ( #29 ) ) ;
#238 = DIRECTION ( 'NONE',  ( 0.000000000000000000, 0.000000000000000000, 1.000000000000000000 ) ) ;
#239 = DIRECTION ( 'NONE',  ( -0.000000000000000000, -0.000000000000000000, -1.000000000000000000 ) ) ;
#240 = CARTESIAN_POINT ( 'NONE',  ( 7.940000000000001279, 0.000000000000000000, 0.000000000000000000 ) ) ;
#241 = LINE ( 'NONE', #78, #287 ) ;
#242 = DIRECTION ( 'NONE',  ( 1.000000000000000000, 0.000000000000000000, 0.000000000000000000 ) ) ;
#243 = ORIENTED_EDGE ( 'NONE', *, *, #151, .F. ) ;
#244 = CARTESIAN_POINT ( 'NONE',  ( 0.000000000000000000, 0.000000000000000000, 3.180000000000000160 ) ) ;
#245 = ADVANCED_FACE ( 'NONE', ( #91 ), #159, .F. ) ;
#246 = DIRECTION ( 'NONE',  ( 1.000000000000000000, 0.000000000000000000, 0.000000000000000000 ) ) ;
#247 = APPROVAL_DATE_TIME ( #389, #252 ) ;
#248 = FACE_BOUND ( 'NONE', #396, .T. ) ;
#249 = VECTOR ( 'NONE', #239, 1000.000000000000000 ) ;
#250 = ADVANCED_FACE ( 'NONE', ( #223 ), #7, .F. ) ;
#251 = FACE_OUTER_BOUND ( 'NONE', #134, .T. ) ;
#252 = APPROVAL ( #100, 'UNSPECIFIED' ) ;
#253 = ORIENTED_EDGE ( 'NONE', *, *, #350, .T. ) ;
#254 = AXIS2_PLACEMENT_3D ( 'NONE', #272, #269, #77 ) ;
#255 = PLANE ( 'NONE',  #90 ) ;
#256 = LOCAL_TIME ( 15, 35, 56.00000000000000000, #31 ) ;
#257 = CIRCLE ( 'NONE', #401, 6.349999999999999645 ) ;
#258 = VERTEX_POINT ( 'NONE', #403 ) ;
#259 = MANIFOLD_SOLID_BREP ( 'Boss-Extrude2', #321 ) ;
#260 = CC_DESIGN_PERSON_AND_ORGANIZATION_ASSIGNMENT ( #394, #393, ( #29 ) ) ;
#261 = DATE_TIME_ROLE ( 'classification_date' ) ;
#262 = SECURITY_CLASSIFICATION_LEVEL ( 'unclassified' ) ;
#263 = VECTOR ( 'NONE', #404, 1000.000000000000000 ) ;
#264 = ORIENTED_EDGE ( 'NONE', *, *, #350, .F. ) ;
#265 = EDGE_CURVE ( 'NONE', #221, #392, #414, .T. ) ;
#266 = APPROVAL ( #37, 'UNSPECIFIED' ) ;
#267 = LOCAL_TIME ( 15, 35, 56.00000000000000000, #361 ) ;
#268 = AXIS2_PLACEMENT_3D ( 'NONE', #116, #352, #85 ) ;
#269 = DIRECTION ( 'NONE',  ( 0.000000000000000000, 0.000000000000000000, 1.000000000000000000 ) ) ;
#270 = VECTOR ( 'NONE', #120, 1000.000000000000000 ) ;
#271 = CIRCLE ( 'NONE', #397, 0.5461000000000006960 ) ;
#272 = CARTESIAN_POINT ( 'NONE',  ( 0.000000000000000000, 0.000000000000000000, 3.180000000000000160 ) ) ;
#273 = VERTEX_POINT ( 'NONE', #342 ) ;
#274 = DIRECTION ( 'NONE',  ( 1.000000000000000000, 0.000000000000000000, -0.000000000000000000 ) ) ;
#275 = CC_DESIGN_DATE_AND_TIME_ASSIGNMENT ( #68, #261, ( #209 ) ) ;
#276 = CARTESIAN_POINT ( 'NONE',  ( 9.525000000000000355, 1.166476076187853627E-15, 3.180000000000000160 ) ) ;
#277 = CARTESIAN_POINT ( 'NONE',  ( -6.349999999999999645, 0.000000000000000000, 3.180000000000000160 ) ) ;
#278 = CARTESIAN_POINT ( 'NONE',  ( 9.525000000000000355, 1.166476076187853627E-15, 3.180000000000000160 ) ) ;
#279 = APPROVAL_DATE_TIME ( #30, #333 ) ;
#280 = AXIS2_PLACEMENT_3D ( 'NONE', #244, #109, #305 ) ;
#281 = CIRCLE ( 'NONE', #307, 0.5460999999999999188 ) ;
#282 = ORIENTED_EDGE ( 'NONE', *, *, #285, .F. ) ;
#283 = AXIS2_PLACEMENT_3D ( 'NONE', #83, #349, #183 ) ;
#284 = COORDINATED_UNIVERSAL_TIME_OFFSET ( 5, 0, .BEHIND. ) ;
#285 = EDGE_CURVE ( 'NONE', #39, #408, #218, .T. ) ;
#286 = CC_DESIGN_PERSON_AND_ORGANIZATION_ASSIGNMENT ( #323, #101, ( #29 ) ) ;
#287 = VECTOR ( 'NONE', #300, 1000.000000000000000 ) ;
#288 = CYLINDRICAL_SURFACE ( 'NONE', #324, 6.349999999999999645 ) ;
#289 = ORIENTED_EDGE ( 'NONE', *, *, #139, .F. ) ;
#290 = APPROVAL_ROLE ( '' ) ;
#291 = ORIENTED_EDGE ( 'NONE', *, *, #227, .F. ) ;
#292 = CC_DESIGN_SECURITY_CLASSIFICATION ( #209, ( #29 ) ) ;
#293 = DIRECTION ( 'NONE',  ( 1.000000000000000000, 0.000000000000000000, 0.000000000000000000 ) ) ;
#294 = DATE_TIME_ROLE ( 'creation_date' ) ;
#295 = DATE_AND_TIME ( #317, #413 ) ;
#296 = VERTEX_POINT ( 'NONE', #276 ) ;
#297 = AXIS2_PLACEMENT_3D ( 'NONE', #372, #409, #380 ) ;
#298 = CARTESIAN_POINT ( 'NONE',  ( -7.393900000000001249, 6.687796170143697942E-17, 0.000000000000000000 ) ) ;
#299 = PLANE ( 'NONE',  #177 ) ;
#300 = DIRECTION ( 'NONE',  ( -0.000000000000000000, -0.000000000000000000, -1.000000000000000000 ) ) ;
#301 = COORDINATED_UNIVERSAL_TIME_OFFSET ( 5, 0, .BEHIND. ) ;
#302 = CIRCLE ( 'NONE', #268, 0.5461000000000006960 ) ;
#303 = CARTESIAN_POINT ( 'NONE',  ( -7.940000000000001279, 0.000000000000000000, 0.000000000000000000 ) ) ;
#304 = ORIENTED_EDGE ( 'NONE', *, *, #194, .F. ) ;
#305 = DIRECTION ( 'NONE',  ( -1.000000000000000000, 0.000000000000000000, 0.000000000000000000 ) ) ;
#306 = CARTESIAN_POINT ( 'NONE',  ( 7.393900000000000361, 0.000000000000000000, 0.000000000000000000 ) ) ;
#307 = AXIS2_PLACEMENT_3D ( 'NONE', #311, #156, #246 ) ;
#308 = CARTESIAN_POINT ( 'NONE',  ( -8.486100000000002197, 0.000000000000000000, 3.180000000000000160 ) ) ;
#309 = CARTESIAN_POINT ( 'NONE',  ( 0.000000000000000000, 0.000000000000000000, 0.000000000000000000 ) ) ;
#310 = FACE_OUTER_BOUND ( 'NONE', #112, .T. ) ;
#311 = CARTESIAN_POINT ( 'NONE',  ( -7.940000000000001279, 0.000000000000000000, 3.180000000000000160 ) ) ;
#312 = PRODUCT ( 'Web Model 19307_19308', 'Web Model 19307_19308', '', ( #226 ) ) ;
#313 = CC_DESIGN_PERSON_AND_ORGANIZATION_ASSIGNMENT ( #213, #72, ( #219 ) ) ;
#314 = CARTESIAN_POINT ( 'NONE',  ( -9.524999999999998579, 0.000000000000000000, -0.002000000000000000042 ) ) ;
#315 = ADVANCED_FACE ( 'NONE', ( #65 ), #81, .F. ) ;
#316 = ADVANCED_FACE ( 'NONE', ( #251 ), #235, .T. ) ;
#317 = CALENDAR_DATE ( 2021, 23, 8 ) ;
#318 = FACE_BOUND ( 'NONE', #162, .T. ) ;
#319 = ORIENTED_EDGE ( 'NONE', *, *, #366, .F. ) ;
#320 = ORIENTED_EDGE ( 'NONE', *, *, #119, .F. ) ;
#321 = CLOSED_SHELL ( 'NONE', ( #383, #250, #245, #316, #354, #180, #125, #315, #79, #49, #385, #189, #343 ) ) ;
#322 = EDGE_CURVE ( 'NONE', #258, #408, #373, .T. ) ;
#323 = PERSON_AND_ORGANIZATION ( #124, #190 ) ;
#324 = AXIS2_PLACEMENT_3D ( 'NONE', #23, #347, #21 ) ;
#325 = VERTEX_POINT ( 'NONE', #308 ) ;
#326 = AXIS2_PLACEMENT_3D ( 'NONE', #148, #212, #117 ) ;
#327 = APPROVAL_STATUS ( 'not_yet_approved' ) ;
#328 = DIRECTION ( 'NONE',  ( 0.000000000000000000, 0.000000000000000000, 1.000000000000000000 ) ) ;
#329 = CIRCLE ( 'NONE', #42, 0.5460999999999999188 ) ;
#330 = ORIENTED_EDGE ( 'NONE', *, *, #407, .F. ) ;
#331 = DIRECTION ( 'NONE',  ( 1.000000000000000000, 0.000000000000000000, 0.000000000000000000 ) ) ;
#332 = VERTEX_POINT ( 'NONE', #210 ) ;
#333 = APPROVAL ( #327, 'UNSPECIFIED' ) ;
#334 = DIRECTION ( 'NONE',  ( 1.000000000000000000, 0.000000000000000000, -0.000000000000000000 ) ) ;
#335 = DIRECTION ( 'NONE',  ( -0.000000000000000000, -0.000000000000000000, -1.000000000000000000 ) ) ;
#336 = DIRECTION ( 'NONE',  ( 0.000000000000000000, 0.000000000000000000, 1.000000000000000000 ) ) ;
#337 = LINE ( 'NONE', #22, #203 ) ;
#338 = ORIENTED_EDGE ( 'NONE', *, *, #52, .T. ) ;
#339 = AXIS2_PLACEMENT_3D ( 'NONE', #54, #202, #149 ) ;
#340 = DIRECTION ( 'NONE',  ( -1.000000000000000000, 0.000000000000000000, 0.000000000000000000 ) ) ;
#341 = DIRECTION ( 'NONE',  ( 0.000000000000000000, 0.000000000000000000, 1.000000000000000000 ) ) ;
#342 = CARTESIAN_POINT ( 'NONE',  ( 9.524999999999998579, 1.166476076187853627E-15, -0.002000000000000000042 ) ) ;
#343 = ADVANCED_FACE ( 'NONE', ( #45 ), #206, .F. ) ;
#344 = CIRCLE ( 'NONE', #20, 9.525000000000000355 ) ;
#345 = CARTESIAN_POINT ( 'NONE',  ( -8.486100000000002197, 0.000000000000000000, 3.180000000000000160 ) ) ;
#346 = ORIENTED_EDGE ( 'NONE', *, *, #57, .F. ) ;
#347 = DIRECTION ( 'NONE',  ( -0.000000000000000000, -0.000000000000000000, -1.000000000000000000 ) ) ;
#348 = EDGE_CURVE ( 'NONE', #176, #273, #391, .T. ) ;
#349 = DIRECTION ( 'NONE',  ( 0.000000000000000000, 0.000000000000000000, 1.000000000000000000 ) ) ;
#350 = EDGE_CURVE ( 'NONE', #170, #154, #337, .T. ) ;
#351 = AXIS2_PLACEMENT_3D ( 'NONE', #309, #121, #242 ) ;
#352 = DIRECTION ( 'NONE',  ( 0.000000000000000000, 0.000000000000000000, 1.000000000000000000 ) ) ;
#353 = AXIS2_PLACEMENT_3D ( 'NONE', #240, #47, #50 ) ;
#354 = ADVANCED_FACE ( 'NONE', ( #164, #400, #318, #248 ), #255, .T. ) ;
#355 = APPROVAL_PERSON_ORGANIZATION ( #217, #252, #172 ) ;
#356 = CALENDAR_DATE ( 2021, 23, 8 ) ;
#357 = FACE_OUTER_BOUND ( 'NONE', #133, .T. ) ;
#358 = EDGE_LOOP ( 'NONE', ( #136, #214, #282, #291 ) ) ;
#359 = ORIENTED_EDGE ( 'NONE', *, *, #187, .T. ) ;
#360 = EDGE_CURVE ( 'NONE', #332, #170, #257, .T. ) ;
#361 = COORDINATED_UNIVERSAL_TIME_OFFSET ( 5, 0, .BEHIND. ) ;
#362 = EDGE_LOOP ( 'NONE', ( #376, #70, #114, #319 ) ) ;
#363 = SHAPE_DEFINITION_REPRESENTATION ( #381, #216 ) ;
#364 = ORIENTED_EDGE ( 'NONE', *, *, #52, .F. ) ;
#365 = APPLICATION_PROTOCOL_DEFINITION ( 'international standard', 'config_control_design', 1994, #138 ) ;
#366 = EDGE_CURVE ( 'NONE', #408, #39, #329, .T. ) ;
#367 = AXIS2_PLACEMENT_3D ( 'NONE', #108, #341, #274 ) ;
#368 = CARTESIAN_POINT ( 'NONE',  ( -9.525000000000000355, 0.000000000000000000, 3.180000000000000160 ) ) ;
#369 = CARTESIAN_POINT ( 'NONE',  ( 0.000000000000000000, 0.000000000000000000, 3.180000000000000160 ) ) ;
#370 = DIRECTION ( 'NONE',  ( 0.000000000000000000, 0.000000000000000000, 1.000000000000000000 ) ) ;
#371 = CARTESIAN_POINT ( 'NONE',  ( 6.349999999999999645, 7.776507174585690191E-16, 3.180000000000000160 ) ) ;
#372 = CARTESIAN_POINT ( 'NONE',  ( 0.000000000000000000, 0.000000000000000000, -0.002000000000000000042 ) ) ;
#373 = LINE ( 'NONE', #17, #263 ) ;
#374 = ORIENTED_EDGE ( 'NONE', *, *, #9, .F. ) ;
#375 = DIRECTION ( 'NONE',  ( -1.000000000000000000, 0.000000000000000000, 0.000000000000000000 ) ) ;
#376 = ORIENTED_EDGE ( 'NONE', *, *, #322, .F. ) ;
#377 = CARTESIAN_POINT ( 'NONE',  ( 7.940000000000001279, 0.000000000000000000, 3.180000000000000160 ) ) ;
#378 = CARTESIAN_POINT ( 'NONE',  ( -7.940000000000001279, 0.000000000000000000, 3.180000000000000160 ) ) ;
#379 = CARTESIAN_POINT ( 'NONE',  ( 0.000000000000000000, 0.000000000000000000, 0.000000000000000000 ) ) ;
#380 = DIRECTION ( 'NONE',  ( 1.000000000000000000, 0.000000000000000000, 0.000000000000000000 ) ) ;
#381 = PRODUCT_DEFINITION_SHAPE ( 'NONE', 'NONE',  #219 ) ;
#382 = ORIENTED_EDGE ( 'NONE', *, *, #119, .T. ) ;
#383 = ADVANCED_FACE ( 'NONE', ( #169 ), #111, .F. ) ;
#384 = PRODUCT_RELATED_PRODUCT_CATEGORY ( 'detail', '', ( #312 ) ) ;
#385 = ADVANCED_FACE ( 'NONE', ( #1 ), #299, .T. ) ;
#386 = PERSON_AND_ORGANIZATION ( #124, #190 ) ;
#387 = CIRCLE ( 'NONE', #254, 9.525000000000000355 ) ;
#388 = ORIENTED_EDGE ( 'NONE', *, *, #187, .F. ) ;
#389 = DATE_AND_TIME ( #186, #406 ) ;
#390 = ORIENTED_EDGE ( 'NONE', *, *, #94, .T. ) ;
#391 = CIRCLE ( 'NONE', #135, 9.524999999999998579 ) ;
#392 = VERTEX_POINT ( 'NONE', #10 ) ;
#393 = PERSON_AND_ORGANIZATION_ROLE ( 'creator' ) ;
#394 = PERSON_AND_ORGANIZATION ( #124, #190 ) ;
#395 = VERTEX_POINT ( 'NONE', #233 ) ;
#396 = EDGE_LOOP ( 'NONE', ( #330, #364 ) ) ;
#397 = AXIS2_PLACEMENT_3D ( 'NONE', #398, #80, #145 ) ;
#398 = CARTESIAN_POINT ( 'NONE',  ( 7.940000000000001279, 0.000000000000000000, 3.180000000000000160 ) ) ;
#399 = DATE_AND_TIME ( #356, #267 ) ;
#400 = FACE_OUTER_BOUND ( 'NONE', #191, .T. ) ;
#401 = AXIS2_PLACEMENT_3D ( 'NONE', #369, #97, #293 ) ;
#402 = LINE ( 'NONE', #368, #147 ) ;
#403 = CARTESIAN_POINT ( 'NONE',  ( -7.393900000000001249, 6.687796170143697942E-17, 3.180000000000000160 ) ) ;
#404 = DIRECTION ( 'NONE',  ( -0.000000000000000000, -0.000000000000000000, -1.000000000000000000 ) ) ;
#405 = DIRECTION ( 'NONE',  ( 1.000000000000000000, 0.000000000000000000, 0.000000000000000000 ) ) ;
#406 = LOCAL_TIME ( 15, 35, 56.00000000000000000, #284 ) ;
#407 = EDGE_CURVE ( 'NONE', #5, #395, #27, .T. ) ;
#408 = VERTEX_POINT ( 'NONE', #298 ) ;
#409 = DIRECTION ( 'NONE',  ( 0.000000000000000000, 0.000000000000000000, 1.000000000000000000 ) ) ;
#410 = DIRECTION ( 'NONE',  ( 0.000000000000000000, 0.000000000000000000, 1.000000000000000000 ) ) ;
#411 = CARTESIAN_POINT ( 'NONE',  ( 0.000000000000000000, 0.000000000000000000, 0.000000000000000000 ) ) ;
#412 = AXIS2_PLACEMENT_3D ( 'NONE', #184, #181, #178 ) ;
#413 = LOCAL_TIME ( 15, 35, 56.00000000000000000, #301 ) ;
#414 = CIRCLE ( 'NONE', #353, 0.5461000000000006960 ) ;
#415 = FACE_OUTER_BOUND ( 'NONE', #63, .T. ) ;
ENDSEC;
END-ISO-10303-21;
