ISO-10303-21;
HEADER;
FILE_DESCRIPTION (( 'STEP AP203' ),
    '1' );
FILE_NAME ('Web Model 45074_13310.step',
    '2020-11-03T21:48:01',
    ( '' ),
    ( '' ),
    'SwSTEP 2.0',
    'SolidWorks 2018',
    '' );
FILE_SCHEMA (( 'CONFIG_CONTROL_DESIGN' ));
ENDSEC;

DATA;
#1 = DIRECTION ( 'NONE',  ( 0.0000000000000000000, 0.0000000000000000000, 1.000000000000000000 ) ) ;
#2 = CARTESIAN_POINT ( 'NONE',  ( 0.0000000000000000000, 0.0000000000000000000, -2.000000000000000000 ) ) ;
#3 = PERSON_AND_ORGANIZATION ( #4, #114 ) ;
#4 = PERSON ( 'UNSPECIFIED', 'UNSPECIFIED', 'UNSPECIFIED', ('UNSPECIFIED'), ('UNSPECIFIED'), ('UNSPECIFIED') ) ;
#5 = FACE_OUTER_BOUND ( 'NONE', #45, .T. ) ;
#6 = PERSON_AND_ORGANIZATION ( #4, #114 ) ;
#7 = SECURITY_CLASSIFICATION_LEVEL ( 'unclassified' ) ;
#8 = AXIS2_PLACEMENT_3D ( 'NONE', #17, #65, #66 ) ;
#9 = UNCERTAINTY_MEASURE_WITH_UNIT (LENGTH_MEASURE( 1.000000000000000082E-05 ), #75, 'distance_accuracy_value', 'NONE');
#10 = VERTEX_POINT ( 'NONE', #100 ) ;
#11 = ADVANCED_FACE ( 'NONE', ( #5 ), #55, .T. ) ;
#12 = VERTEX_POINT ( 'NONE', #117 ) ;
#13 = EDGE_CURVE ( 'NONE', #12, #124, #67, .T. ) ;
#14 = DIRECTION ( 'NONE',  ( 1.000000000000000000, 0.0000000000000000000, -0.0000000000000000000 ) ) ;
#15 =( NAMED_UNIT ( * ) PLANE_ANGLE_UNIT ( ) SI_UNIT ( $, .RADIAN. ) );
#16 = APPROVAL_PERSON_ORGANIZATION ( #70, #135, #92 ) ;
#17 = CARTESIAN_POINT ( 'NONE',  ( 0.0000000000000000000, 0.0000000000000000000, 0.0000000000000000000 ) ) ;
#18 = DIRECTION ( 'NONE',  ( 0.0000000000000000000, 0.0000000000000000000, 1.000000000000000000 ) ) ;
#19 = CLOSED_SHELL ( 'NONE', ( #11, #143, #47, #152 ) ) ;
#20 = APPROVAL ( #111, 'UNSPECIFIED' ) ;
#21 = PRODUCT ( 'Web Model 45074_13310', 'Web Model 45074_13310', '', ( #121 ) ) ;
#22 = DATE_TIME_ROLE ( 'classification_date' ) ;
#23 = FACE_OUTER_BOUND ( 'NONE', #94, .T. ) ;
#24 = CARTESIAN_POINT ( 'NONE',  ( 0.0000000000000000000, 0.0000000000000000000, -2.000000000000000000 ) ) ;
#25 = SHAPE_DEFINITION_REPRESENTATION ( #169, #38 ) ;
#26 = PERSON_AND_ORGANIZATION_ROLE ( 'classification_officer' ) ;
#27 = CALENDAR_DATE ( 2020, 3, 11 ) ;
#28 = ORIENTED_EDGE ( 'NONE', *, *, #154, .F. ) ;
#29 = APPLICATION_PROTOCOL_DEFINITION ( 'international standard', 'config_control_design', 1994, #106 ) ;
#30 = DIRECTION ( 'NONE',  ( 1.000000000000000000, 0.0000000000000000000, 0.0000000000000000000 ) ) ;
#31 = COORDINATED_UNIVERSAL_TIME_OFFSET ( 5, 0, .BEHIND. ) ;
#32 = ORIENTED_EDGE ( 'NONE', *, *, #175, .F. ) ;
#33 = VECTOR ( 'NONE', #170, 1000.000000000000000 ) ;
#34 = AXIS2_PLACEMENT_3D ( 'NONE', #90, #79, #39 ) ;
#35 = DATE_AND_TIME ( #118, #72 ) ;
#36 = ORIENTED_EDGE ( 'NONE', *, *, #120, .F. ) ;
#37 = DIRECTION ( 'NONE',  ( 1.000000000000000000, 0.0000000000000000000, -0.0000000000000000000 ) ) ;
#38 = ADVANCED_BREP_SHAPE_REPRESENTATION ( 'Web Model 45074_13310', ( #80, #8 ), #131 ) ;
#39 = DIRECTION ( 'NONE',  ( 1.000000000000000000, 0.0000000000000000000, 0.0000000000000000000 ) ) ;
#40 = PERSON_AND_ORGANIZATION ( #4, #114 ) ;
#41 = EDGE_LOOP ( 'NONE', ( #32, #36 ) ) ;
#42 = DIRECTION ( 'NONE',  ( 0.0000000000000000000, 0.0000000000000000000, 1.000000000000000000 ) ) ;
#43 = FACE_OUTER_BOUND ( 'NONE', #167, .T. ) ;
#44 = DIRECTION ( 'NONE',  ( 1.000000000000000000, 0.0000000000000000000, 0.0000000000000000000 ) ) ;
#45 = EDGE_LOOP ( 'NONE', ( #147, #99, #28, #110 ) ) ;
#46 = AXIS2_PLACEMENT_3D ( 'NONE', #84, #140, #37 ) ;
#47 = ADVANCED_FACE ( 'NONE', ( #160 ), #150, .F. ) ;
#48 = COORDINATED_UNIVERSAL_TIME_OFFSET ( 5, 0, .BEHIND. ) ;
#49 = LINE ( 'NONE', #133, #149 ) ;
#50 = EDGE_CURVE ( 'NONE', #10, #146, #49, .T. ) ;
#51 = DATE_AND_TIME ( #27, #58 ) ;
#52 = AXIS2_PLACEMENT_3D ( 'NONE', #87, #144, #14 ) ;
#53 = DIRECTION ( 'NONE',  ( 1.000000000000000000, 0.0000000000000000000, 0.0000000000000000000 ) ) ;
#54 = COORDINATED_UNIVERSAL_TIME_OFFSET ( 5, 0, .BEHIND. ) ;
#55 = CYLINDRICAL_SURFACE ( 'NONE', #173, 5.000000000000000000 ) ;
#56 = CC_DESIGN_PERSON_AND_ORGANIZATION_ASSIGNMENT ( #137, #157, ( #21 ) ) ;
#57 = ORIENTED_EDGE ( 'NONE', *, *, #154, .T. ) ;
#58 = LOCAL_TIME ( 16, 48, 1.000000000000000000, #48 ) ;
#59 = CC_DESIGN_PERSON_AND_ORGANIZATION_ASSIGNMENT ( #93, #105, ( #165 ) ) ;
#60 = APPROVAL_PERSON_ORGANIZATION ( #3, #119, #162 ) ;
#61 = ORIENTED_EDGE ( 'NONE', *, *, #13, .F. ) ;
#62 = DIRECTION ( 'NONE',  ( 0.0000000000000000000, 0.0000000000000000000, 1.000000000000000000 ) ) ;
#63 = CARTESIAN_POINT ( 'NONE',  ( -5.000000000000000000, 6.123233995736766282E-16, 0.0000000000000000000 ) ) ;
#64 = CARTESIAN_POINT ( 'NONE',  ( 5.000000000000000000, 0.0000000000000000000, 0.0000000000000000000 ) ) ;
#65 = DIRECTION ( 'NONE',  ( 0.0000000000000000000, 0.0000000000000000000, 1.000000000000000000 ) ) ;
#66 = DIRECTION ( 'NONE',  ( 1.000000000000000000, 0.0000000000000000000, 0.0000000000000000000 ) ) ;
#67 = LINE ( 'NONE', #168, #33 ) ;
#68 = CC_DESIGN_SECURITY_CLASSIFICATION ( #97, ( #165 ) ) ;
#69 = CC_DESIGN_PERSON_AND_ORGANIZATION_ASSIGNMENT ( #6, #158, ( #113 ) ) ;
#70 = PERSON_AND_ORGANIZATION ( #4, #114 ) ;
#71 = CC_DESIGN_APPROVAL ( #20, ( #165 ) ) ;
#72 = LOCAL_TIME ( 16, 48, 1.000000000000000000, #31 ) ;
#73 = CIRCLE ( 'NONE', #116, 5.000000000000000000 ) ;
#74 = DATE_AND_TIME ( #171, #138 ) ;
#75 =( LENGTH_UNIT ( ) NAMED_UNIT ( * ) SI_UNIT ( .MILLI., .METRE. ) );
#76 = APPLICATION_CONTEXT ( 'configuration controlled 3d designs of mechanical parts and assemblies' ) ;
#77 = CIRCLE ( 'NONE', #148, 5.000000000000000000 ) ;
#78 = CC_DESIGN_PERSON_AND_ORGANIZATION_ASSIGNMENT ( #159, #83, ( #165 ) ) ;
#79 = DIRECTION ( 'NONE',  ( 0.0000000000000000000, 0.0000000000000000000, 1.000000000000000000 ) ) ;
#80 = MANIFOLD_SOLID_BREP ( 'Extrude1', #19 ) ;
#81 = APPLICATION_PROTOCOL_DEFINITION ( 'international standard', 'config_control_design', 1994, #76 ) ;
#82 = CIRCLE ( 'NONE', #161, 5.000000000000000000 ) ;
#83 = PERSON_AND_ORGANIZATION_ROLE ( 'design_supplier' ) ;
#84 = CARTESIAN_POINT ( 'NONE',  ( 0.0000000000000000000, 0.0000000000000000000, -2.000000000000000000 ) ) ;
#85 = CC_DESIGN_PERSON_AND_ORGANIZATION_ASSIGNMENT ( #101, #26, ( #97 ) ) ;
#86 = DATE_AND_TIME ( #127, #88 ) ;
#87 = CARTESIAN_POINT ( 'NONE',  ( 0.0000000000000000000, 0.0000000000000000000, 0.0000000000000000000 ) ) ;
#88 = LOCAL_TIME ( 16, 48, 1.000000000000000000, #136 ) ;
#89 = DIRECTION ( 'NONE',  ( 0.0000000000000000000, 0.0000000000000000000, 1.000000000000000000 ) ) ;
#90 = CARTESIAN_POINT ( 'NONE',  ( 0.0000000000000000000, 0.0000000000000000000, -2.000000000000000000 ) ) ;
#91 = DIRECTION ( 'NONE',  ( 1.000000000000000000, 0.0000000000000000000, 0.0000000000000000000 ) ) ;
#92 = APPROVAL_ROLE ( '' ) ;
#93 = PERSON_AND_ORGANIZATION ( #4, #114 ) ;
#94 = EDGE_LOOP ( 'NONE', ( #61, #156, #112, #130 ) ) ;
#95 = DATE_AND_TIME ( #134, #98 ) ;
#96 = APPROVAL_STATUS ( 'not_yet_approved' ) ;
#97 = SECURITY_CLASSIFICATION ( '', '', #7 ) ;
#98 = LOCAL_TIME ( 16, 48, 1.000000000000000000, #54 ) ;
#99 = ORIENTED_EDGE ( 'NONE', *, *, #13, .T. ) ;
#100 = CARTESIAN_POINT ( 'NONE',  ( 5.000000000000000000, 0.0000000000000000000, -2.000000000000000000 ) ) ;
#101 = PERSON_AND_ORGANIZATION ( #4, #114 ) ;
#102 = EDGE_CURVE ( 'NONE', #124, #146, #73, .T. ) ;
#103 = DESIGN_CONTEXT ( 'detailed design', #76, 'design' ) ;
#104 = APPROVAL_ROLE ( '' ) ;
#105 = PERSON_AND_ORGANIZATION_ROLE ( 'creator' ) ;
#106 = APPLICATION_CONTEXT ( 'configuration controlled 3d designs of mechanical parts and assemblies' ) ;
#107 =( NAMED_UNIT ( * ) SI_UNIT ( $, .STERADIAN. ) SOLID_ANGLE_UNIT ( ) );
#108 = DIRECTION ( 'NONE',  ( 1.000000000000000000, 0.0000000000000000000, 0.0000000000000000000 ) ) ;
#109 = CC_DESIGN_DATE_AND_TIME_ASSIGNMENT ( #35, #22, ( #97 ) ) ;
#110 = ORIENTED_EDGE ( 'NONE', *, *, #50, .F. ) ;
#111 = APPROVAL_STATUS ( 'not_yet_approved' ) ;
#112 = ORIENTED_EDGE ( 'NONE', *, *, #50, .T. ) ;
#113 = PRODUCT_DEFINITION ( 'UNKNOWN', '', #165, #103 ) ;
#114 = ORGANIZATION ( 'UNSPECIFIED', 'UNSPECIFIED', '' ) ;
#115 = ORIENTED_EDGE ( 'NONE', *, *, #102, .T. ) ;
#116 = AXIS2_PLACEMENT_3D ( 'NONE', #132, #1, #108 ) ;
#117 = CARTESIAN_POINT ( 'NONE',  ( -5.000000000000000000, 6.123233995736766282E-16, -2.000000000000000000 ) ) ;
#118 = CALENDAR_DATE ( 2020, 3, 11 ) ;
#119 = APPROVAL ( #96, 'UNSPECIFIED' ) ;
#120 = EDGE_CURVE ( 'NONE', #12, #10, #82, .T. ) ;
#121 = MECHANICAL_CONTEXT ( 'NONE', #106, 'mechanical' ) ;
#122 = CYLINDRICAL_SURFACE ( 'NONE', #125, 5.000000000000000000 ) ;
#123 = APPROVAL_STATUS ( 'not_yet_approved' ) ;
#124 = VERTEX_POINT ( 'NONE', #63 ) ;
#125 = AXIS2_PLACEMENT_3D ( 'NONE', #2, #62, #91 ) ;
#126 = APPROVAL_PERSON_ORGANIZATION ( #40, #20, #104 ) ;
#127 = CALENDAR_DATE ( 2020, 3, 11 ) ;
#128 = DIRECTION ( 'NONE',  ( 0.0000000000000000000, 0.0000000000000000000, 1.000000000000000000 ) ) ;
#129 = CIRCLE ( 'NONE', #34, 5.000000000000000000 ) ;
#130 = ORIENTED_EDGE ( 'NONE', *, *, #102, .F. ) ;
#131 =( GEOMETRIC_REPRESENTATION_CONTEXT ( 3 ) GLOBAL_UNCERTAINTY_ASSIGNED_CONTEXT ( ( #9 ) ) GLOBAL_UNIT_ASSIGNED_CONTEXT ( ( #75, #15, #107 ) ) REPRESENTATION_CONTEXT ( 'NONE', 'WORKASPACE' ) );
#132 = CARTESIAN_POINT ( 'NONE',  ( 0.0000000000000000000, 0.0000000000000000000, 0.0000000000000000000 ) ) ;
#133 = CARTESIAN_POINT ( 'NONE',  ( 5.000000000000000000, 0.0000000000000000000, -2.000000000000000000 ) ) ;
#134 = CALENDAR_DATE ( 2020, 3, 11 ) ;
#135 = APPROVAL ( #123, 'UNSPECIFIED' ) ;
#136 = COORDINATED_UNIVERSAL_TIME_OFFSET ( 5, 0, .BEHIND. ) ;
#137 = PERSON_AND_ORGANIZATION ( #4, #114 ) ;
#138 = LOCAL_TIME ( 16, 48, 1.000000000000000000, #172 ) ;
#139 = CC_DESIGN_APPROVAL ( #119, ( #97 ) ) ;
#140 = DIRECTION ( 'NONE',  ( 0.0000000000000000000, 0.0000000000000000000, 1.000000000000000000 ) ) ;
#141 = CARTESIAN_POINT ( 'NONE',  ( 0.0000000000000000000, 0.0000000000000000000, -2.000000000000000000 ) ) ;
#142 = CC_DESIGN_APPROVAL ( #135, ( #113 ) ) ;
#143 = ADVANCED_FACE ( 'NONE', ( #23 ), #122, .T. ) ;
#144 = DIRECTION ( 'NONE',  ( 0.0000000000000000000, 0.0000000000000000000, 1.000000000000000000 ) ) ;
#145 = APPROVAL_DATE_TIME ( #95, #20 ) ;
#146 = VERTEX_POINT ( 'NONE', #64 ) ;
#147 = ORIENTED_EDGE ( 'NONE', *, *, #175, .T. ) ;
#148 = AXIS2_PLACEMENT_3D ( 'NONE', #155, #18, #30 ) ;
#149 = VECTOR ( 'NONE', #42, 1000.000000000000000 ) ;
#150 = PLANE ( 'NONE',  #46 ) ;
#151 = CC_DESIGN_DATE_AND_TIME_ASSIGNMENT ( #74, #163, ( #113 ) ) ;
#152 = ADVANCED_FACE ( 'NONE', ( #43 ), #174, .T. ) ;
#153 = PRODUCT_RELATED_PRODUCT_CATEGORY ( 'detail', '', ( #21 ) ) ;
#154 = EDGE_CURVE ( 'NONE', #146, #124, #77, .T. ) ;
#155 = CARTESIAN_POINT ( 'NONE',  ( 0.0000000000000000000, 0.0000000000000000000, 0.0000000000000000000 ) ) ;
#156 = ORIENTED_EDGE ( 'NONE', *, *, #120, .T. ) ;
#157 = PERSON_AND_ORGANIZATION_ROLE ( 'design_owner' ) ;
#158 = PERSON_AND_ORGANIZATION_ROLE ( 'creator' ) ;
#159 = PERSON_AND_ORGANIZATION ( #4, #114 ) ;
#160 = FACE_OUTER_BOUND ( 'NONE', #41, .T. ) ;
#161 = AXIS2_PLACEMENT_3D ( 'NONE', #141, #89, #53 ) ;
#162 = APPROVAL_ROLE ( '' ) ;
#163 = DATE_TIME_ROLE ( 'creation_date' ) ;
#164 = APPROVAL_DATE_TIME ( #86, #135 ) ;
#165 = PRODUCT_DEFINITION_FORMATION_WITH_SPECIFIED_SOURCE ( 'ANY', '', #21, .NOT_KNOWN. ) ;
#166 = APPROVAL_DATE_TIME ( #51, #119 ) ;
#167 = EDGE_LOOP ( 'NONE', ( #57, #115 ) ) ;
#168 = CARTESIAN_POINT ( 'NONE',  ( -5.000000000000000000, 6.123233995736766282E-16, -2.000000000000000000 ) ) ;
#169 = PRODUCT_DEFINITION_SHAPE ( 'NONE', 'NONE',  #113 ) ;
#170 = DIRECTION ( 'NONE',  ( 0.0000000000000000000, 0.0000000000000000000, 1.000000000000000000 ) ) ;
#171 = CALENDAR_DATE ( 2020, 3, 11 ) ;
#172 = COORDINATED_UNIVERSAL_TIME_OFFSET ( 5, 0, .BEHIND. ) ;
#173 = AXIS2_PLACEMENT_3D ( 'NONE', #24, #128, #44 ) ;
#174 = PLANE ( 'NONE',  #52 ) ;
#175 = EDGE_CURVE ( 'NONE', #10, #12, #129, .T. ) ;
ENDSEC;
END-ISO-10303-21;
