ISO-10303-21;
HEADER;
FILE_DESCRIPTION (( 'STEP AP203' ),
    '1' );
FILE_NAME ('Web Model 47681_14813.step',
    '2020-10-07T17:21:36',
    ( '' ),
    ( '' ),
    'SwSTEP 2.0',
    'SolidWorks 2018',
    '' );
FILE_SCHEMA (( 'CONFIG_CONTROL_DESIGN' ));
ENDSEC;

DATA;
#1 = PERSON_AND_ORGANIZATION ( #62, #129 ) ;
#2 = DIRECTION ( 'NONE',  ( 0.0000000000000000000, 0.0000000000000000000, 1.000000000000000000 ) ) ;
#3 = FACE_OUTER_BOUND ( 'NONE', #78, .T. ) ;
#4 = CARTESIAN_POINT ( 'NONE',  ( -5.000000000000000888, 0.0000000000000000000, 0.7500000000000000000 ) ) ;
#5 = CARTESIAN_POINT ( 'NONE',  ( 5.000000000000000888, 6.123233995736767268E-16, 0.7500000000000000000 ) ) ;
#6 = VERTEX_POINT ( 'NONE', #153 ) ;
#7 = CIRCLE ( 'NONE', #90, 5.000000000000000888 ) ;
#8 =( LENGTH_UNIT ( ) NAMED_UNIT ( * ) SI_UNIT ( .MILLI., .METRE. ) );
#9 = APPROVAL_STATUS ( 'not_yet_approved' ) ;
#10 = APPROVAL_DATE_TIME ( #49, #126 ) ;
#11 = ORIENTED_EDGE ( 'NONE', *, *, #160, .F. ) ;
#12 = ADVANCED_FACE ( 'NONE', ( #152 ), #141, .T. ) ;
#13 = EDGE_LOOP ( 'NONE', ( #130, #148 ) ) ;
#14 = ADVANCED_FACE ( 'NONE', ( #3 ), #60, .T. ) ;
#15 = DATE_AND_TIME ( #71, #140 ) ;
#16 = PRODUCT_DEFINITION ( 'UNKNOWN', '', #76, #143 ) ;
#17 = LINE ( 'NONE', #5, #163 ) ;
#18 = PRODUCT_RELATED_PRODUCT_CATEGORY ( 'detail', '', ( #29 ) ) ;
#19 = DIRECTION ( 'NONE',  ( 0.0000000000000000000, 0.0000000000000000000, 1.000000000000000000 ) ) ;
#20 = CARTESIAN_POINT ( 'NONE',  ( 0.0000000000000000000, 0.0000000000000000000, 0.7500000000000000000 ) ) ;
#21 = DIRECTION ( 'NONE',  ( -1.000000000000000000, 0.0000000000000000000, 0.0000000000000000000 ) ) ;
#22 = EDGE_CURVE ( 'NONE', #72, #74, #142, .T. ) ;
#23 = DATE_AND_TIME ( #149, #73 ) ;
#24 = EDGE_LOOP ( 'NONE', ( #46, #102, #169, #43 ) ) ;
#25 = CARTESIAN_POINT ( 'NONE',  ( -5.000000000000000888, 0.0000000000000000000, -0.7500000000000000000 ) ) ;
#26 = APPLICATION_PROTOCOL_DEFINITION ( 'international standard', 'config_control_design', 1994, #110 ) ;
#27 = DIRECTION ( 'NONE',  ( 1.000000000000000000, 0.0000000000000000000, 0.0000000000000000000 ) ) ;
#28 = DIRECTION ( 'NONE',  ( 0.0000000000000000000, 0.0000000000000000000, 1.000000000000000000 ) ) ;
#29 = PRODUCT ( 'Web Model 47681_14813', 'Web Model 47681_14813', '', ( #52 ) ) ;
#30 = PERSON_AND_ORGANIZATION ( #62, #129 ) ;
#31 = PERSON_AND_ORGANIZATION ( #62, #129 ) ;
#32 = VECTOR ( 'NONE', #134, 1000.000000000000000 ) ;
#33 = APPROVAL_PERSON_ORGANIZATION ( #168, #126, #103 ) ;
#34 = AXIS2_PLACEMENT_3D ( 'NONE', #93, #2, #106 ) ;
#35 = CC_DESIGN_APPROVAL ( #105, ( #16 ) ) ;
#36 = APPROVAL_DATE_TIME ( #23, #105 ) ;
#37 = PLANE ( 'NONE',  #51 ) ;
#38 = APPROVAL_ROLE ( '' ) ;
#39 = PERSON_AND_ORGANIZATION_ROLE ( 'creator' ) ;
#40 = APPROVAL_PERSON_ORGANIZATION ( #44, #105, #38 ) ;
#41 = DIRECTION ( 'NONE',  ( 0.0000000000000000000, 0.0000000000000000000, 1.000000000000000000 ) ) ;
#42 = ADVANCED_BREP_SHAPE_REPRESENTATION ( 'Web Model 47681_14813', ( #123, #127 ), #104 ) ;
#43 = ORIENTED_EDGE ( 'NONE', *, *, #22, .F. ) ;
#44 = PERSON_AND_ORGANIZATION ( #62, #129 ) ;
#45 = CC_DESIGN_DATE_AND_TIME_ASSIGNMENT ( #165, #68, ( #16 ) ) ;
#46 = ORIENTED_EDGE ( 'NONE', *, *, #99, .F. ) ;
#47 = CIRCLE ( 'NONE', #70, 5.000000000000000888 ) ;
#48 = CC_DESIGN_APPROVAL ( #50, ( #76 ) ) ;
#49 = DATE_AND_TIME ( #89, #154 ) ;
#50 = APPROVAL ( #112, 'UNSPECIFIED' ) ;
#51 = AXIS2_PLACEMENT_3D ( 'NONE', #91, #19, #132 ) ;
#52 = MECHANICAL_CONTEXT ( 'NONE', #110, 'mechanical' ) ;
#53 = APPROVAL_STATUS ( 'not_yet_approved' ) ;
#54 = CC_DESIGN_APPROVAL ( #126, ( #131 ) ) ;
#55 = APPROVAL_DATE_TIME ( #92, #50 ) ;
#56 = CALENDAR_DATE ( 2020, 7, 10 ) ;
#57 = CC_DESIGN_PERSON_AND_ORGANIZATION_ASSIGNMENT ( #1, #171, ( #29 ) ) ;
#58 = ADVANCED_FACE ( 'NONE', ( #161 ), #37, .F. ) ;
#59 = APPROVAL_PERSON_ORGANIZATION ( #31, #50, #64 ) ;
#60 = CYLINDRICAL_SURFACE ( 'NONE', #61, 5.000000000000000888 ) ;
#61 = AXIS2_PLACEMENT_3D ( 'NONE', #20, #94, #21 ) ;
#62 = PERSON ( 'UNSPECIFIED', 'UNSPECIFIED', 'UNSPECIFIED', ('UNSPECIFIED'), ('UNSPECIFIED'), ('UNSPECIFIED') ) ;
#63 = CARTESIAN_POINT ( 'NONE',  ( -5.000000000000000888, 0.0000000000000000000, 0.7500000000000000000 ) ) ;
#64 = APPROVAL_ROLE ( '' ) ;
#65 = DIRECTION ( 'NONE',  ( 1.000000000000000000, 0.0000000000000000000, 0.0000000000000000000 ) ) ;
#66 = DIRECTION ( 'NONE',  ( -0.0000000000000000000, -0.0000000000000000000, -1.000000000000000000 ) ) ;
#67 = CARTESIAN_POINT ( 'NONE',  ( 5.000000000000000888, 6.123233995736767268E-16, 0.7500000000000000000 ) ) ;
#68 = DATE_TIME_ROLE ( 'creation_date' ) ;
#69 = ORIENTED_EDGE ( 'NONE', *, *, #85, .F. ) ;
#70 = AXIS2_PLACEMENT_3D ( 'NONE', #137, #41, #122 ) ;
#71 = CALENDAR_DATE ( 2020, 7, 10 ) ;
#72 = VERTEX_POINT ( 'NONE', #4 ) ;
#73 = LOCAL_TIME ( 13, 21, 36.00000000000000000, #81 ) ;
#74 = VERTEX_POINT ( 'NONE', #25 ) ;
#75 = FACE_OUTER_BOUND ( 'NONE', #24, .T. ) ;
#76 = PRODUCT_DEFINITION_FORMATION_WITH_SPECIFIED_SOURCE ( 'ANY', '', #29, .NOT_KNOWN. ) ;
#77 = CYLINDRICAL_SURFACE ( 'NONE', #116, 5.000000000000000888 ) ;
#78 = EDGE_LOOP ( 'NONE', ( #79, #84, #117, #109 ) ) ;
#79 = ORIENTED_EDGE ( 'NONE', *, *, #173, .F. ) ;
#80 = SECURITY_CLASSIFICATION_LEVEL ( 'unclassified' ) ;
#81 = COORDINATED_UNIVERSAL_TIME_OFFSET ( 5, 0, .BEHIND. ) ;
#82 = PERSON_AND_ORGANIZATION_ROLE ( 'design_supplier' ) ;
#83 = CARTESIAN_POINT ( 'NONE',  ( 0.0000000000000000000, 0.0000000000000000000, -0.7500000000000000000 ) ) ;
#84 = ORIENTED_EDGE ( 'NONE', *, *, #120, .F. ) ;
#85 = EDGE_CURVE ( 'NONE', #6, #74, #118, .T. ) ;
#86 = CC_DESIGN_SECURITY_CLASSIFICATION ( #131, ( #76 ) ) ;
#87 = UNCERTAINTY_MEASURE_WITH_UNIT (LENGTH_MEASURE( 1.000000000000000082E-05 ), #8, 'distance_accuracy_value', 'NONE');
#88 = CC_DESIGN_PERSON_AND_ORGANIZATION_ASSIGNMENT ( #164, #156, ( #76 ) ) ;
#89 = CALENDAR_DATE ( 2020, 7, 10 ) ;
#90 = AXIS2_PLACEMENT_3D ( 'NONE', #96, #98, #121 ) ;
#91 = CARTESIAN_POINT ( 'NONE',  ( 0.0000000000000000000, 0.0000000000000000000, -0.7500000000000000000 ) ) ;
#92 = DATE_AND_TIME ( #151, #139 ) ;
#93 = CARTESIAN_POINT ( 'NONE',  ( 0.0000000000000000000, 0.0000000000000000000, 0.7500000000000000000 ) ) ;
#94 = DIRECTION ( 'NONE',  ( -0.0000000000000000000, -0.0000000000000000000, -1.000000000000000000 ) ) ;
#95 = LOCAL_TIME ( 13, 21, 36.00000000000000000, #172 ) ;
#96 = CARTESIAN_POINT ( 'NONE',  ( 0.0000000000000000000, 0.0000000000000000000, 0.7500000000000000000 ) ) ;
#97 = DIRECTION ( 'NONE',  ( 1.000000000000000000, 0.0000000000000000000, 0.0000000000000000000 ) ) ;
#98 = DIRECTION ( 'NONE',  ( 0.0000000000000000000, 0.0000000000000000000, 1.000000000000000000 ) ) ;
#99 = EDGE_CURVE ( 'NONE', #155, #72, #47, .T. ) ;
#100 = CARTESIAN_POINT ( 'NONE',  ( 0.0000000000000000000, 0.0000000000000000000, -0.7500000000000000000 ) ) ;
#101 = CC_DESIGN_PERSON_AND_ORGANIZATION_ASSIGNMENT ( #119, #107, ( #131 ) ) ;
#102 = ORIENTED_EDGE ( 'NONE', *, *, #173, .T. ) ;
#103 = APPROVAL_ROLE ( '' ) ;
#104 =( GEOMETRIC_REPRESENTATION_CONTEXT ( 3 ) GLOBAL_UNCERTAINTY_ASSIGNED_CONTEXT ( ( #87 ) ) GLOBAL_UNIT_ASSIGNED_CONTEXT ( ( #8, #146, #145 ) ) REPRESENTATION_CONTEXT ( 'NONE', 'WORKASPACE' ) );
#105 = APPROVAL ( #9, 'UNSPECIFIED' ) ;
#106 = DIRECTION ( 'NONE',  ( 1.000000000000000000, 0.0000000000000000000, -0.0000000000000000000 ) ) ;
#107 = PERSON_AND_ORGANIZATION_ROLE ( 'classification_officer' ) ;
#108 = CIRCLE ( 'NONE', #133, 5.000000000000000888 ) ;
#109 = ORIENTED_EDGE ( 'NONE', *, *, #160, .T. ) ;
#110 = APPLICATION_CONTEXT ( 'configuration controlled 3d designs of mechanical parts and assemblies' ) ;
#111 = CARTESIAN_POINT ( 'NONE',  ( 0.0000000000000000000, 0.0000000000000000000, 0.7500000000000000000 ) ) ;
#112 = APPROVAL_STATUS ( 'not_yet_approved' ) ;
#113 = CC_DESIGN_PERSON_AND_ORGANIZATION_ASSIGNMENT ( #30, #82, ( #76 ) ) ;
#114 = COORDINATED_UNIVERSAL_TIME_OFFSET ( 5, 0, .BEHIND. ) ;
#115 = EDGE_LOOP ( 'NONE', ( #11, #69 ) ) ;
#116 = AXIS2_PLACEMENT_3D ( 'NONE', #111, #66, #124 ) ;
#117 = ORIENTED_EDGE ( 'NONE', *, *, #22, .T. ) ;
#118 = CIRCLE ( 'NONE', #162, 5.000000000000000888 ) ;
#119 = PERSON_AND_ORGANIZATION ( #62, #129 ) ;
#120 = EDGE_CURVE ( 'NONE', #72, #155, #7, .T. ) ;
#121 = DIRECTION ( 'NONE',  ( 1.000000000000000000, 0.0000000000000000000, 0.0000000000000000000 ) ) ;
#122 = DIRECTION ( 'NONE',  ( 1.000000000000000000, 0.0000000000000000000, 0.0000000000000000000 ) ) ;
#123 = MANIFOLD_SOLID_BREP ( 'Boss-Extrude1', #135 ) ;
#124 = DIRECTION ( 'NONE',  ( -1.000000000000000000, 0.0000000000000000000, 0.0000000000000000000 ) ) ;
#125 = ADVANCED_FACE ( 'NONE', ( #75 ), #77, .T. ) ;
#126 = APPROVAL ( #53, 'UNSPECIFIED' ) ;
#127 = AXIS2_PLACEMENT_3D ( 'NONE', #147, #28, #65 ) ;
#128 = COORDINATED_UNIVERSAL_TIME_OFFSET ( 5, 0, .BEHIND. ) ;
#129 = ORGANIZATION ( 'UNSPECIFIED', 'UNSPECIFIED', '' ) ;
#130 = ORIENTED_EDGE ( 'NONE', *, *, #120, .T. ) ;
#131 = SECURITY_CLASSIFICATION ( '', '', #80 ) ;
#132 = DIRECTION ( 'NONE',  ( 1.000000000000000000, 0.0000000000000000000, -0.0000000000000000000 ) ) ;
#133 = AXIS2_PLACEMENT_3D ( 'NONE', #83, #170, #97 ) ;
#134 = DIRECTION ( 'NONE',  ( -0.0000000000000000000, -0.0000000000000000000, -1.000000000000000000 ) ) ;
#135 = CLOSED_SHELL ( 'NONE', ( #125, #14, #12, #58 ) ) ;
#136 = DATE_TIME_ROLE ( 'classification_date' ) ;
#137 = CARTESIAN_POINT ( 'NONE',  ( 0.0000000000000000000, 0.0000000000000000000, 0.7500000000000000000 ) ) ;
#138 = COORDINATED_UNIVERSAL_TIME_OFFSET ( 5, 0, .BEHIND. ) ;
#139 = LOCAL_TIME ( 13, 21, 36.00000000000000000, #128 ) ;
#140 = LOCAL_TIME ( 13, 21, 36.00000000000000000, #114 ) ;
#141 = PLANE ( 'NONE',  #34 ) ;
#142 = LINE ( 'NONE', #63, #32 ) ;
#143 = DESIGN_CONTEXT ( 'detailed design', #166, 'design' ) ;
#144 = APPLICATION_PROTOCOL_DEFINITION ( 'international standard', 'config_control_design', 1994, #166 ) ;
#145 =( NAMED_UNIT ( * ) SI_UNIT ( $, .STERADIAN. ) SOLID_ANGLE_UNIT ( ) );
#146 =( NAMED_UNIT ( * ) PLANE_ANGLE_UNIT ( ) SI_UNIT ( $, .RADIAN. ) );
#147 = CARTESIAN_POINT ( 'NONE',  ( 0.0000000000000000000, 0.0000000000000000000, 0.0000000000000000000 ) ) ;
#148 = ORIENTED_EDGE ( 'NONE', *, *, #99, .T. ) ;
#149 = CALENDAR_DATE ( 2020, 7, 10 ) ;
#150 = CC_DESIGN_PERSON_AND_ORGANIZATION_ASSIGNMENT ( #174, #39, ( #16 ) ) ;
#151 = CALENDAR_DATE ( 2020, 7, 10 ) ;
#152 = FACE_OUTER_BOUND ( 'NONE', #13, .T. ) ;
#153 = CARTESIAN_POINT ( 'NONE',  ( 5.000000000000000888, 6.123233995736767268E-16, -0.7500000000000000000 ) ) ;
#154 = LOCAL_TIME ( 13, 21, 36.00000000000000000, #138 ) ;
#155 = VERTEX_POINT ( 'NONE', #67 ) ;
#156 = PERSON_AND_ORGANIZATION_ROLE ( 'creator' ) ;
#157 = PRODUCT_DEFINITION_SHAPE ( 'NONE', 'NONE',  #16 ) ;
#158 = DIRECTION ( 'NONE',  ( -0.0000000000000000000, -0.0000000000000000000, -1.000000000000000000 ) ) ;
#159 = CC_DESIGN_DATE_AND_TIME_ASSIGNMENT ( #15, #136, ( #131 ) ) ;
#160 = EDGE_CURVE ( 'NONE', #74, #6, #108, .T. ) ;
#161 = FACE_OUTER_BOUND ( 'NONE', #115, .T. ) ;
#162 = AXIS2_PLACEMENT_3D ( 'NONE', #100, #167, #27 ) ;
#163 = VECTOR ( 'NONE', #158, 1000.000000000000000 ) ;
#164 = PERSON_AND_ORGANIZATION ( #62, #129 ) ;
#165 = DATE_AND_TIME ( #56, #95 ) ;
#166 = APPLICATION_CONTEXT ( 'configuration controlled 3d designs of mechanical parts and assemblies' ) ;
#167 = DIRECTION ( 'NONE',  ( 0.0000000000000000000, 0.0000000000000000000, 1.000000000000000000 ) ) ;
#168 = PERSON_AND_ORGANIZATION ( #62, #129 ) ;
#169 = ORIENTED_EDGE ( 'NONE', *, *, #85, .T. ) ;
#170 = DIRECTION ( 'NONE',  ( 0.0000000000000000000, 0.0000000000000000000, 1.000000000000000000 ) ) ;
#171 = PERSON_AND_ORGANIZATION_ROLE ( 'design_owner' ) ;
#172 = COORDINATED_UNIVERSAL_TIME_OFFSET ( 5, 0, .BEHIND. ) ;
#173 = EDGE_CURVE ( 'NONE', #155, #6, #17, .T. ) ;
#174 = PERSON_AND_ORGANIZATION ( #62, #129 ) ;
#175 = SHAPE_DEFINITION_REPRESENTATION ( #157, #42 ) ;
ENDSEC;
END-ISO-10303-21;
