ISO-10303-21;
HEADER;
FILE_DESCRIPTION (( 'STEP AP214' ),
    '1' );
FILE_NAME ('21238.step',
    '2022-06-15T20:32:33',
    ( '' ),
    ( '' ),
    'SwSTEP 2.0',
    'SolidWorks 2021',
    '' );
FILE_SCHEMA (( 'AUTOMOTIVE_DESIGN' ));
ENDSEC;

DATA;
#1 = PLANE ( 'NONE',  #127 ) ;
#2 = ORIENTED_EDGE ( 'NONE', *, *, #154, .T. ) ;
#3 = EDGE_CURVE ( 'NONE', #166, #102, #46, .T. ) ;
#4 =( LENGTH_UNIT ( ) NAMED_UNIT ( * ) SI_UNIT ( .MILLI., .METRE. ) );
#5 = APPLICATION_PROTOCOL_DEFINITION ( 'draft international standard', 'automotive_design', 1998, #150 ) ;
#6 = EDGE_CURVE ( 'NONE', #74, #102, #172, .T. ) ;
#7 = VERTEX_POINT ( 'NONE', #160 ) ;
#8 = DIRECTION ( 'NONE',  ( -0.000000000000000000, -0.000000000000000000, -1.000000000000000000 ) ) ;
#9 = CARTESIAN_POINT ( 'NONE',  ( -126.9999999999999432, -152.4000000000000341, 1.100000000000000089 ) ) ;
#10 = ORIENTED_EDGE ( 'NONE', *, *, #3, .F. ) ;
#11 = LINE ( 'NONE', #76, #189 ) ;
#12 = VECTOR ( 'NONE', #178, 1000.000000000000000 ) ;
#13 = ORIENTED_EDGE ( 'NONE', *, *, #126, .T. ) ;
#14 = LINE ( 'NONE', #82, #21 ) ;
#15 = LINE ( 'NONE', #28, #24 ) ;
#16 = ORIENTED_EDGE ( 'NONE', *, *, #126, .F. ) ;
#17 = EDGE_CURVE ( 'NONE', #166, #34, #173, .T. ) ;
#18 = LINE ( 'NONE', #32, #89 ) ;
#19 = ORIENTED_EDGE ( 'NONE', *, *, #6, .T. ) ;
#20 = FACE_OUTER_BOUND ( 'NONE', #117, .T. ) ;
#21 = VECTOR ( 'NONE', #147, 1000.000000000000000 ) ;
#22 = CARTESIAN_POINT ( 'NONE',  ( 0.000000000000000000, 0.000000000000000000, 0.000000000000000000 ) ) ;
#23 = PRODUCT_CONTEXT ( 'NONE', #123, 'mechanical' ) ;
#24 = VECTOR ( 'NONE', #184, 1000.000000000000000 ) ;
#25 = FACE_OUTER_BOUND ( 'NONE', #158, .T. ) ;
#26 = CARTESIAN_POINT ( 'NONE',  ( 0.000000000000000000, 0.000000000000000000, 0.000000000000000000 ) ) ;
#27 = PLANE ( 'NONE',  #73 ) ;
#28 = CARTESIAN_POINT ( 'NONE',  ( -126.9999999999999432, -152.4000000000000341, 1.100000000000000089 ) ) ;
#29 = FACE_OUTER_BOUND ( 'NONE', #202, .T. ) ;
#30 = ORIENTED_EDGE ( 'NONE', *, *, #72, .T. ) ;
#31 = PLANE ( 'NONE',  #108 ) ;
#32 = CARTESIAN_POINT ( 'NONE',  ( 127.0000000000000000, 152.3999999999999773, 0.000000000000000000 ) ) ;
#33 = ORIENTED_EDGE ( 'NONE', *, *, #84, .F. ) ;
#34 = VERTEX_POINT ( 'NONE', #9 ) ;
#35 = CARTESIAN_POINT ( 'NONE',  ( 0.000000000000000000, 0.000000000000000000, 1.100000000000000089 ) ) ;
#36 = EDGE_CURVE ( 'NONE', #78, #74, #11, .T. ) ;
#37 = ADVANCED_FACE ( 'NONE', ( #109 ), #201, .F. ) ;
#38 = COLOUR_RGB ( '',0.7921568627450980005, 0.8196078431372548767, 0.9333333333333333481 ) ;
#39 = VECTOR ( 'NONE', #192, 1000.000000000000000 ) ;
#40 = DIRECTION ( 'NONE',  ( 1.000000000000000000, 0.000000000000000000, 0.000000000000000000 ) ) ;
#41 = PLANE ( 'NONE',  #97 ) ;
#42 = SURFACE_STYLE_FILL_AREA ( #83 ) ;
#43 = CARTESIAN_POINT ( 'NONE',  ( -127.0000000000000000, 152.3999999999999773, 0.000000000000000000 ) ) ;
#44 = DIRECTION ( 'NONE',  ( -0.000000000000000000, -0.000000000000000000, -1.000000000000000000 ) ) ;
#45 = ORIENTED_EDGE ( 'NONE', *, *, #154, .F. ) ;
#46 = LINE ( 'NONE', #174, #71 ) ;
#47 = FILL_AREA_STYLE ('',( #95 ) ) ;
#48 = DIRECTION ( 'NONE',  ( -1.821231995776175725E-16, 1.000000000000000000, -0.000000000000000000 ) ) ;
#49 = VECTOR ( 'NONE', #196, 1000.000000000000000 ) ;
#50 = ORIENTED_EDGE ( 'NONE', *, *, #141, .T. ) ;
#51 = CARTESIAN_POINT ( 'NONE',  ( 127.0000000000000568, -152.4000000000000341, 1.100000000000000089 ) ) ;
#52 = EDGE_CURVE ( 'NONE', #60, #7, #115, .T. ) ;
#53 =( NAMED_UNIT ( * ) SI_UNIT ( $, .STERADIAN. ) SOLID_ANGLE_UNIT ( ) );
#54 = DIRECTION ( 'NONE',  ( 1.000000000000000000, 0.000000000000000000, 0.000000000000000000 ) ) ;
#55 = ADVANCED_FACE ( 'NONE', ( #96 ), #31, .F. ) ;
#56 = AXIS2_PLACEMENT_3D ( 'NONE', #35, #149, #87 ) ;
#57 = CARTESIAN_POINT ( 'NONE',  ( 127.0000000000000000, 152.3999999999999773, 0.000000000000000000 ) ) ;
#58 = DIRECTION ( 'NONE',  ( 0.000000000000000000, -0.000000000000000000, -1.000000000000000000 ) ) ;
#59 = ORIENTED_EDGE ( 'NONE', *, *, #17, .F. ) ;
#60 = VERTEX_POINT ( 'NONE', #93 ) ;
#61 = AXIS2_PLACEMENT_3D ( 'NONE', #22, #69, #54 ) ;
#62 = ORIENTED_EDGE ( 'NONE', *, *, #72, .F. ) ;
#63 = SURFACE_SIDE_STYLE ('',( #81 ) ) ;
#64 = UNCERTAINTY_MEASURE_WITH_UNIT (LENGTH_MEASURE( 1.000000000000000082E-05 ), #105, 'distance_accuracy_value', 'NONE');
#65 = DIRECTION ( 'NONE',  ( -1.821231995776175725E-16, 1.000000000000000000, 0.000000000000000000 ) ) ;
#66 = ADVANCED_BREP_SHAPE_REPRESENTATION ( '21238', ( #171, #61 ), #151 ) ;
#67 = CARTESIAN_POINT ( 'NONE',  ( 127.0000000000000568, -152.4000000000000341, 1.100000000000000089 ) ) ;
#68 = VECTOR ( 'NONE', #40, 1000.000000000000000 ) ;
#69 = DIRECTION ( 'NONE',  ( 0.000000000000000000, 0.000000000000000000, 1.000000000000000000 ) ) ;
#70 = ADVANCED_FACE ( 'NONE', ( #25 ), #27, .F. ) ;
#71 = VECTOR ( 'NONE', #8, 1000.000000000000000 ) ;
#72 = EDGE_CURVE ( 'NONE', #135, #78, #14, .T. ) ;
#73 = AXIS2_PLACEMENT_3D ( 'NONE', #26, #142, #132 ) ;
#74 = VERTEX_POINT ( 'NONE', #57 ) ;
#75 = UNCERTAINTY_MEASURE_WITH_UNIT (LENGTH_MEASURE( 1.000000000000000082E-05 ), #4, 'distance_accuracy_value', 'NONE');
#76 = CARTESIAN_POINT ( 'NONE',  ( 127.0000000000000000, 152.3999999999999773, 1.100000000000000089 ) ) ;
#77 = SURFACE_SIDE_STYLE ('',( #42 ) ) ;
#78 = VERTEX_POINT ( 'NONE', #129 ) ;
#79 = CARTESIAN_POINT ( 'NONE',  ( -126.9999999999999432, -152.4000000000000341, 0.000000000000000000 ) ) ;
#80 = STYLED_ITEM ( 'NONE', ( #143 ), #171 ) ;
#81 = SURFACE_STYLE_FILL_AREA ( #47 ) ;
#82 = CARTESIAN_POINT ( 'NONE',  ( 127.0000000000000000, 152.3999999999999773, 1.100000000000000089 ) ) ;
#83 = FILL_AREA_STYLE ('',( #94 ) ) ;
#84 = EDGE_CURVE ( 'NONE', #34, #135, #90, .T. ) ;
#85 = ORIENTED_EDGE ( 'NONE', *, *, #84, .T. ) ;
#86 = PRODUCT_DEFINITION_FORMATION_WITH_SPECIFIED_SOURCE ( 'ANY', '', #187, .NOT_KNOWN. ) ;
#87 = DIRECTION ( 'NONE',  ( 1.000000000000000000, 0.000000000000000000, 0.000000000000000000 ) ) ;
#88 = PLANE ( 'NONE',  #56 ) ;
#89 = VECTOR ( 'NONE', #48, 1000.000000000000000 ) ;
#90 = LINE ( 'NONE', #190, #68 ) ;
#91 = CARTESIAN_POINT ( 'NONE',  ( 127.0000000000000000, 152.3999999999999773, 1.100000000000000089 ) ) ;
#92 = ORIENTED_EDGE ( 'NONE', *, *, #170, .F. ) ;
#93 = CARTESIAN_POINT ( 'NONE',  ( -126.9999999999999432, -152.4000000000000341, 0.000000000000000000 ) ) ;
#94 = FILL_AREA_STYLE_COLOUR ( '', #162 ) ;
#95 = FILL_AREA_STYLE_COLOUR ( '', #38 ) ;
#96 = FACE_OUTER_BOUND ( 'NONE', #180, .T. ) ;
#97 = AXIS2_PLACEMENT_3D ( 'NONE', #91, #110, #145 ) ;
#98 = LINE ( 'NONE', #176, #49 ) ;
#99 = UNCERTAINTY_MEASURE_WITH_UNIT (LENGTH_MEASURE( 1.000000000000000082E-05 ), #116, 'distance_accuracy_value', 'NONE');
#100 =( NAMED_UNIT ( * ) PLANE_ANGLE_UNIT ( ) SI_UNIT ( $, .RADIAN. ) );
#101 = PRESENTATION_LAYER_ASSIGNMENT (  '', '', ( #80 ) ) ;
#102 = VERTEX_POINT ( 'NONE', #153 ) ;
#103 =( NAMED_UNIT ( * ) PLANE_ANGLE_UNIT ( ) SI_UNIT ( $, .RADIAN. ) );
#104 = APPLICATION_PROTOCOL_DEFINITION ( 'draft international standard', 'automotive_design', 1998, #123 ) ;
#105 =( LENGTH_UNIT ( ) NAMED_UNIT ( * ) SI_UNIT ( .MILLI., .METRE. ) );
#106 = AXIS2_PLACEMENT_3D ( 'NONE', #200, #111, #58 ) ;
#107 = ADVANCED_FACE ( 'NONE', ( #29 ), #41, .F. ) ;
#108 = AXIS2_PLACEMENT_3D ( 'NONE', #199, #157, #177 ) ;
#109 = FACE_OUTER_BOUND ( 'NONE', #130, .T. ) ;
#110 = DIRECTION ( 'NONE',  ( -1.000000000000000000, -1.821231995776175725E-16, 0.000000000000000000 ) ) ;
#111 = DIRECTION ( 'NONE',  ( 0.000000000000000000, -1.000000000000000000, 0.000000000000000000 ) ) ;
#112 = SURFACE_STYLE_USAGE ( .BOTH. , #77 ) ;
#113 = ADVANCED_FACE ( 'NONE', ( #188 ), #1, .F. ) ;
#114 = SHAPE_DEFINITION_REPRESENTATION ( #136, #66 ) ;
#115 = LINE ( 'NONE', #79, #12 ) ;
#116 =( LENGTH_UNIT ( ) NAMED_UNIT ( * ) SI_UNIT ( .MILLI., .METRE. ) );
#117 = EDGE_LOOP ( 'NONE', ( #30, #50, #161, #85 ) ) ;
#118 = DIRECTION ( 'NONE',  ( -0.000000000000000000, -0.000000000000000000, -1.000000000000000000 ) ) ;
#119 = ORIENTED_EDGE ( 'NONE', *, *, #3, .T. ) ;
#120 = PRESENTATION_STYLE_ASSIGNMENT (( #133 ) ) ;
#121 = CARTESIAN_POINT ( 'NONE',  ( -127.0000000000000000, 152.3999999999999773, 1.100000000000000089 ) ) ;
#122 = ORIENTED_EDGE ( 'NONE', *, *, #36, .F. ) ;
#123 = APPLICATION_CONTEXT ( 'automotive_design' ) ;
#124 =( NAMED_UNIT ( * ) SI_UNIT ( $, .STERADIAN. ) SOLID_ANGLE_UNIT ( ) );
#125 =( NAMED_UNIT ( * ) PLANE_ANGLE_UNIT ( ) SI_UNIT ( $, .RADIAN. ) );
#126 = EDGE_CURVE ( 'NONE', #135, #7, #134, .T. ) ;
#127 = AXIS2_PLACEMENT_3D ( 'NONE', #128, #155, #65 ) ;
#128 = CARTESIAN_POINT ( 'NONE',  ( -127.0000000000000000, 152.3999999999999773, 1.100000000000000089 ) ) ;
#129 = CARTESIAN_POINT ( 'NONE',  ( 127.0000000000000000, 152.3999999999999773, 1.100000000000000089 ) ) ;
#130 = EDGE_LOOP ( 'NONE', ( #19, #10, #131, #164 ) ) ;
#131 = ORIENTED_EDGE ( 'NONE', *, *, #141, .F. ) ;
#132 = DIRECTION ( 'NONE',  ( 1.000000000000000000, 0.000000000000000000, 0.000000000000000000 ) ) ;
#133 = SURFACE_STYLE_USAGE ( .BOTH. , #63 ) ;
#134 = LINE ( 'NONE', #67, #181 ) ;
#135 = VERTEX_POINT ( 'NONE', #51 ) ;
#136 = PRODUCT_DEFINITION_SHAPE ( 'NONE', 'NONE',  #186 ) ;
#137 =( NAMED_UNIT ( * ) SI_UNIT ( $, .STERADIAN. ) SOLID_ANGLE_UNIT ( ) );
#138 = VECTOR ( 'NONE', #165, 1000.000000000000000 ) ;
#139 = CARTESIAN_POINT ( 'NONE',  ( -127.0000000000000000, 152.3999999999999773, 1.100000000000000089 ) ) ;
#140 = ORIENTED_EDGE ( 'NONE', *, *, #169, .F. ) ;
#141 = EDGE_CURVE ( 'NONE', #78, #166, #195, .T. ) ;
#142 = DIRECTION ( 'NONE',  ( -0.000000000000000000, 0.000000000000000000, 1.000000000000000000 ) ) ;
#143 = PRESENTATION_STYLE_ASSIGNMENT (( #112 ) ) ;
#144 = MECHANICAL_DESIGN_GEOMETRIC_PRESENTATION_REPRESENTATION (  '', ( #80 ), #148 ) ;
#145 = DIRECTION ( 'NONE',  ( 1.821231995776175725E-16, -1.000000000000000000, 0.000000000000000000 ) ) ;
#146 = PRODUCT_RELATED_PRODUCT_CATEGORY ( 'part', '', ( #187 ) ) ;
#147 = DIRECTION ( 'NONE',  ( -1.821231995776175725E-16, 1.000000000000000000, -0.000000000000000000 ) ) ;
#148 =( GEOMETRIC_REPRESENTATION_CONTEXT ( 3 ) GLOBAL_UNCERTAINTY_ASSIGNED_CONTEXT ( ( #99 ) ) GLOBAL_UNIT_ASSIGNED_CONTEXT ( ( #116, #103, #137 ) ) REPRESENTATION_CONTEXT ( 'NONE', 'WORKASPACE' ) );
#149 = DIRECTION ( 'NONE',  ( -0.000000000000000000, 0.000000000000000000, 1.000000000000000000 ) ) ;
#150 = APPLICATION_CONTEXT ( 'automotive_design' ) ;
#151 =( GEOMETRIC_REPRESENTATION_CONTEXT ( 3 ) GLOBAL_UNCERTAINTY_ASSIGNED_CONTEXT ( ( #75 ) ) GLOBAL_UNIT_ASSIGNED_CONTEXT ( ( #4, #100, #53 ) ) REPRESENTATION_CONTEXT ( 'NONE', 'WORKASPACE' ) );
#152 = VECTOR ( 'NONE', #163, 1000.000000000000000 ) ;
#153 = CARTESIAN_POINT ( 'NONE',  ( -127.0000000000000000, 152.3999999999999773, 0.000000000000000000 ) ) ;
#154 = EDGE_CURVE ( 'NONE', #7, #74, #18, .T. ) ;
#155 = DIRECTION ( 'NONE',  ( 1.000000000000000000, 1.821231995776175725E-16, -0.000000000000000000 ) ) ;
#156 = ORIENTED_EDGE ( 'NONE', *, *, #6, .F. ) ;
#157 = DIRECTION ( 'NONE',  ( 0.000000000000000000, 1.000000000000000000, 0.000000000000000000 ) ) ;
#158 = EDGE_LOOP ( 'NONE', ( #45, #182, #140, #156 ) ) ;
#159 = STYLED_ITEM ( 'NONE', ( #120 ), #66 ) ;
#160 = CARTESIAN_POINT ( 'NONE',  ( 127.0000000000000568, -152.4000000000000341, 0.000000000000000000 ) ) ;
#161 = ORIENTED_EDGE ( 'NONE', *, *, #17, .T. ) ;
#162 = COLOUR_RGB ( '',0.7921568627450980005, 0.8196078431372548767, 0.9333333333333333481 ) ;
#163 = DIRECTION ( 'NONE',  ( -1.000000000000000000, -0.000000000000000000, -0.000000000000000000 ) ) ;
#164 = ORIENTED_EDGE ( 'NONE', *, *, #36, .T. ) ;
#165 = DIRECTION ( 'NONE',  ( -1.000000000000000000, -0.000000000000000000, -0.000000000000000000 ) ) ;
#166 = VERTEX_POINT ( 'NONE', #179 ) ;
#167 = CLOSED_SHELL ( 'NONE', ( #107, #37, #113, #55, #198, #70 ) ) ;
#168 = ORIENTED_EDGE ( 'NONE', *, *, #52, .T. ) ;
#169 = EDGE_CURVE ( 'NONE', #102, #60, #98, .T. ) ;
#170 = EDGE_CURVE ( 'NONE', #34, #60, #15, .T. ) ;
#171 = MANIFOLD_SOLID_BREP ( 'Boss-Extrude1', #167 ) ;
#172 = LINE ( 'NONE', #43, #152 ) ;
#173 = LINE ( 'NONE', #139, #39 ) ;
#174 = CARTESIAN_POINT ( 'NONE',  ( -127.0000000000000000, 152.3999999999999773, 1.100000000000000089 ) ) ;
#175 = PRESENTATION_LAYER_ASSIGNMENT (  '', '', ( #159 ) ) ;
#176 = CARTESIAN_POINT ( 'NONE',  ( -127.0000000000000000, 152.3999999999999773, 0.000000000000000000 ) ) ;
#177 = DIRECTION ( 'NONE',  ( 0.000000000000000000, -0.000000000000000000, 1.000000000000000000 ) ) ;
#178 = DIRECTION ( 'NONE',  ( 1.000000000000000000, 0.000000000000000000, 0.000000000000000000 ) ) ;
#179 = CARTESIAN_POINT ( 'NONE',  ( -127.0000000000000000, 152.3999999999999773, 1.100000000000000089 ) ) ;
#180 = EDGE_LOOP ( 'NONE', ( #168, #16, #33, #191 ) ) ;
#181 = VECTOR ( 'NONE', #44, 1000.000000000000000 ) ;
#182 = ORIENTED_EDGE ( 'NONE', *, *, #52, .F. ) ;
#183 = PRODUCT_DEFINITION_CONTEXT ( 'detailed design', #150, 'design' ) ;
#184 = DIRECTION ( 'NONE',  ( -0.000000000000000000, -0.000000000000000000, -1.000000000000000000 ) ) ;
#185 = ORIENTED_EDGE ( 'NONE', *, *, #169, .T. ) ;
#186 = PRODUCT_DEFINITION ( 'UNKNOWN', '', #86, #183 ) ;
#187 = PRODUCT ( '21238', '21238', '', ( #23 ) ) ;
#188 = FACE_OUTER_BOUND ( 'NONE', #194, .T. ) ;
#189 = VECTOR ( 'NONE', #118, 1000.000000000000000 ) ;
#190 = CARTESIAN_POINT ( 'NONE',  ( -126.9999999999999432, -152.4000000000000341, 1.100000000000000089 ) ) ;
#191 = ORIENTED_EDGE ( 'NONE', *, *, #170, .T. ) ;
#192 = DIRECTION ( 'NONE',  ( 1.821231995776175725E-16, -1.000000000000000000, 0.000000000000000000 ) ) ;
#193 = MECHANICAL_DESIGN_GEOMETRIC_PRESENTATION_REPRESENTATION (  '', ( #159 ), #197 ) ;
#194 = EDGE_LOOP ( 'NONE', ( #185, #92, #59, #119 ) ) ;
#195 = LINE ( 'NONE', #121, #138 ) ;
#196 = DIRECTION ( 'NONE',  ( 1.821231995776175725E-16, -1.000000000000000000, 0.000000000000000000 ) ) ;
#197 =( GEOMETRIC_REPRESENTATION_CONTEXT ( 3 ) GLOBAL_UNCERTAINTY_ASSIGNED_CONTEXT ( ( #64 ) ) GLOBAL_UNIT_ASSIGNED_CONTEXT ( ( #105, #125, #124 ) ) REPRESENTATION_CONTEXT ( 'NONE', 'WORKASPACE' ) );
#198 = ADVANCED_FACE ( 'NONE', ( #20 ), #88, .T. ) ;
#199 = CARTESIAN_POINT ( 'NONE',  ( -126.9999999999999432, -152.4000000000000341, 1.100000000000000089 ) ) ;
#200 = CARTESIAN_POINT ( 'NONE',  ( -127.0000000000000000, 152.3999999999999773, 1.100000000000000089 ) ) ;
#201 = PLANE ( 'NONE',  #106 ) ;
#202 = EDGE_LOOP ( 'NONE', ( #2, #122, #62, #13 ) ) ;
ENDSEC;
END-ISO-10303-21;
