ISO-10303-21;
HEADER;
FILE_DESCRIPTION (( 'STEP AP203' ),
    '1' );
FILE_NAME ('Web Model 14684_14691.step',
    '2020-04-13T13:39:38',
    ( '' ),
    ( '' ),
    'SwSTEP 2.0',
    'SolidWorks 2018',
    '' );
FILE_SCHEMA (( 'CONFIG_CONTROL_DESIGN' ));
ENDSEC;

DATA;
#1 = PERSON ( 'UNSPECIFIED', 'UNSPECIFIED', 'UNSPECIFIED', ('UNSPECIFIED'), ('UNSPECIFIED'), ('UNSPECIFIED') ) ;
#2 = CC_DESIGN_DATE_AND_TIME_ASSIGNMENT ( #67, #114, ( #141 ) ) ;
#3 = APPROVAL_PERSON_ORGANIZATION ( #88, #162, #129 ) ;
#4 = PERSON_AND_ORGANIZATION_ROLE ( 'classification_officer' ) ;
#5 = CC_DESIGN_APPROVAL ( #174, ( #155 ) ) ;
#6 = DIRECTION ( 'NONE',  ( 0.0000000000000000000, 0.0000000000000000000, 1.000000000000000000 ) ) ;
#7 = DATE_AND_TIME ( #169, #16 ) ;
#8 = CARTESIAN_POINT ( 'NONE',  ( 1.500000000000000000, 1.102182119232617714E-15, -9.000000000000000000 ) ) ;
#9 = PERSON_AND_ORGANIZATION_ROLE ( 'design_supplier' ) ;
#10 = APPROVAL_PERSON_ORGANIZATION ( #166, #174, #159 ) ;
#11 = CLOSED_SHELL ( 'NONE', ( #66, #133, #115, #28 ) ) ;
#12 = ADVANCED_BREP_SHAPE_REPRESENTATION ( 'Web Model 14684_14691', ( #106, #58 ), #47 ) ;
#13 = AXIS2_PLACEMENT_3D ( 'NONE', #48, #119, #65 ) ;
#14 = PERSON_AND_ORGANIZATION ( #1, #32 ) ;
#15 = CC_DESIGN_PERSON_AND_ORGANIZATION_ASSIGNMENT ( #172, #23, ( #155 ) ) ;
#16 = LOCAL_TIME ( 9, 39, 38.00000000000000000, #125 ) ;
#17 = APPROVAL_DATE_TIME ( #55, #137 ) ;
#18 = CARTESIAN_POINT ( 'NONE',  ( -1.500000000000000000, 0.0000000000000000000, 9.000000000000000000 ) ) ;
#19 = DIRECTION ( 'NONE',  ( 0.0000000000000000000, 0.0000000000000000000, -1.000000000000000000 ) ) ;
#20 = ORIENTED_EDGE ( 'NONE', *, *, #122, .T. ) ;
#21 = FACE_OUTER_BOUND ( 'NONE', #168, .T. ) ;
#22 = DIRECTION ( 'NONE',  ( -1.000000000000000000, -0.0000000000000000000, -0.0000000000000000000 ) ) ;
#23 = PERSON_AND_ORGANIZATION_ROLE ( 'creator' ) ;
#24 = CALENDAR_DATE ( 2020, 13, 4 ) ;
#25 = LOCAL_TIME ( 9, 39, 38.00000000000000000, #59 ) ;
#26 = DIRECTION ( 'NONE',  ( 0.0000000000000000000, 0.0000000000000000000, -1.000000000000000000 ) ) ;
#27 = AXIS2_PLACEMENT_3D ( 'NONE', #98, #22, #6 ) ;
#28 = ADVANCED_FACE ( 'NONE', ( #35 ), #123, .F. ) ;
#29 = CIRCLE ( 'NONE', #53, 9.000000000000000000 ) ;
#30 = COORDINATED_UNIVERSAL_TIME_OFFSET ( 5, 0, .BEHIND. ) ;
#31 = ORIENTED_EDGE ( 'NONE', *, *, #167, .F. ) ;
#32 = ORGANIZATION ( 'UNSPECIFIED', 'UNSPECIFIED', '' ) ;
#33 = CIRCLE ( 'NONE', #13, 9.000000000000000000 ) ;
#34 = DIRECTION ( 'NONE',  ( 0.0000000000000000000, 0.0000000000000000000, 1.000000000000000000 ) ) ;
#35 = FACE_OUTER_BOUND ( 'NONE', #124, .T. ) ;
#36 = DIRECTION ( 'NONE',  ( 1.000000000000000000, 0.0000000000000000000, 0.0000000000000000000 ) ) ;
#37 = APPROVAL_STATUS ( 'not_yet_approved' ) ;
#38 = ORIENTED_EDGE ( 'NONE', *, *, #127, .F. ) ;
#39 = CARTESIAN_POINT ( 'NONE',  ( 1.500000000000000000, 1.102182119232617714E-15, -9.000000000000000000 ) ) ;
#40 = APPROVAL_STATUS ( 'not_yet_approved' ) ;
#41 = ORIENTED_EDGE ( 'NONE', *, *, #70, .T. ) ;
#42 = AXIS2_PLACEMENT_3D ( 'NONE', #43, #61, #19 ) ;
#43 = CARTESIAN_POINT ( 'NONE',  ( -1.500000000000000000, 0.0000000000000000000, 0.0000000000000000000 ) ) ;
#44 = EDGE_CURVE ( 'NONE', #62, #78, #143, .T. ) ;
#45 = PERSON_AND_ORGANIZATION ( #1, #32 ) ;
#46 = CARTESIAN_POINT ( 'NONE',  ( -1.500000000000000000, 0.0000000000000000000, 0.0000000000000000000 ) ) ;
#47 =( GEOMETRIC_REPRESENTATION_CONTEXT ( 3 ) GLOBAL_UNCERTAINTY_ASSIGNED_CONTEXT ( ( #163 ) ) GLOBAL_UNIT_ASSIGNED_CONTEXT ( ( #156, #49, #100 ) ) REPRESENTATION_CONTEXT ( 'NONE', 'WORKASPACE' ) );
#48 = CARTESIAN_POINT ( 'NONE',  ( -1.500000000000000000, 0.0000000000000000000, 0.0000000000000000000 ) ) ;
#49 =( NAMED_UNIT ( * ) PLANE_ANGLE_UNIT ( ) SI_UNIT ( $, .RADIAN. ) );
#50 = APPROVAL_ROLE ( '' ) ;
#51 = ORIENTED_EDGE ( 'NONE', *, *, #79, .T. ) ;
#52 = CYLINDRICAL_SURFACE ( 'NONE', #81, 9.000000000000000000 ) ;
#53 = AXIS2_PLACEMENT_3D ( 'NONE', #103, #157, #26 ) ;
#54 = DATE_AND_TIME ( #24, #104 ) ;
#55 = DATE_AND_TIME ( #85, #25 ) ;
#56 = CC_DESIGN_APPROVAL ( #137, ( #134 ) ) ;
#57 = SHAPE_DEFINITION_REPRESENTATION ( #60, #12 ) ;
#58 = AXIS2_PLACEMENT_3D ( 'NONE', #90, #116, #132 ) ;
#59 = COORDINATED_UNIVERSAL_TIME_OFFSET ( 5, 0, .BEHIND. ) ;
#60 = PRODUCT_DEFINITION_SHAPE ( 'NONE', 'NONE',  #134 ) ;
#61 = DIRECTION ( 'NONE',  ( 1.000000000000000000, 0.0000000000000000000, 0.0000000000000000000 ) ) ;
#62 = VERTEX_POINT ( 'NONE', #18 ) ;
#63 = APPLICATION_CONTEXT ( 'configuration controlled 3d designs of mechanical parts and assemblies' ) ;
#64 = CYLINDRICAL_SURFACE ( 'NONE', #27, 9.000000000000000000 ) ;
#65 = DIRECTION ( 'NONE',  ( 0.0000000000000000000, 0.0000000000000000000, -1.000000000000000000 ) ) ;
#66 = ADVANCED_FACE ( 'NONE', ( #147 ), #52, .T. ) ;
#67 = DATE_AND_TIME ( #150, #112 ) ;
#68 = PERSON_AND_ORGANIZATION ( #1, #32 ) ;
#69 = CC_DESIGN_PERSON_AND_ORGANIZATION_ASSIGNMENT ( #136, #9, ( #155 ) ) ;
#70 = EDGE_CURVE ( 'NONE', #78, #62, #33, .T. ) ;
#71 = LOCAL_TIME ( 9, 39, 38.00000000000000000, #82 ) ;
#72 = VERTEX_POINT ( 'NONE', #8 ) ;
#73 = CARTESIAN_POINT ( 'NONE',  ( 1.500000000000000000, 0.0000000000000000000, 9.000000000000000000 ) ) ;
#74 = PERSON_AND_ORGANIZATION_ROLE ( 'design_owner' ) ;
#75 = DIRECTION ( 'NONE',  ( 1.000000000000000000, 0.0000000000000000000, 0.0000000000000000000 ) ) ;
#76 = SECURITY_CLASSIFICATION_LEVEL ( 'unclassified' ) ;
#77 = PERSON_AND_ORGANIZATION_ROLE ( 'creator' ) ;
#78 = VERTEX_POINT ( 'NONE', #113 ) ;
#79 = EDGE_CURVE ( 'NONE', #72, #78, #161, .T. ) ;
#80 = PRODUCT ( 'Web Model 14684_14691', 'Web Model 14684_14691', '', ( #145 ) ) ;
#81 = AXIS2_PLACEMENT_3D ( 'NONE', #86, #108, #34 ) ;
#82 = COORDINATED_UNIVERSAL_TIME_OFFSET ( 5, 0, .BEHIND. ) ;
#83 = ORIENTED_EDGE ( 'NONE', *, *, #122, .F. ) ;
#84 = VECTOR ( 'NONE', #117, 1000.000000000000000 ) ;
#85 = CALENDAR_DATE ( 2020, 13, 4 ) ;
#86 = CARTESIAN_POINT ( 'NONE',  ( 1.500000000000000000, 0.0000000000000000000, 0.0000000000000000000 ) ) ;
#87 = DIRECTION ( 'NONE',  ( 0.0000000000000000000, 0.0000000000000000000, -1.000000000000000000 ) ) ;
#88 = PERSON_AND_ORGANIZATION ( #1, #32 ) ;
#89 = AXIS2_PLACEMENT_3D ( 'NONE', #46, #36, #126 ) ;
#90 = CARTESIAN_POINT ( 'NONE',  ( 0.0000000000000000000, 0.0000000000000000000, 0.0000000000000000000 ) ) ;
#91 = EDGE_LOOP ( 'NONE', ( #120, #107 ) ) ;
#92 = APPROVAL_PERSON_ORGANIZATION ( #68, #137, #50 ) ;
#93 = EDGE_LOOP ( 'NONE', ( #38, #51, #41, #83 ) ) ;
#94 = AXIS2_PLACEMENT_3D ( 'NONE', #101, #142, #140 ) ;
#95 = CC_DESIGN_PERSON_AND_ORGANIZATION_ASSIGNMENT ( #45, #4, ( #141 ) ) ;
#96 = AXIS2_PLACEMENT_3D ( 'NONE', #102, #75, #87 ) ;
#97 = FACE_OUTER_BOUND ( 'NONE', #91, .T. ) ;
#98 = CARTESIAN_POINT ( 'NONE',  ( 1.500000000000000000, 0.0000000000000000000, 0.0000000000000000000 ) ) ;
#99 = COORDINATED_UNIVERSAL_TIME_OFFSET ( 5, 0, .BEHIND. ) ;
#100 =( NAMED_UNIT ( * ) SI_UNIT ( $, .STERADIAN. ) SOLID_ANGLE_UNIT ( ) );
#101 = CARTESIAN_POINT ( 'NONE',  ( 1.500000000000000000, 0.0000000000000000000, 0.0000000000000000000 ) ) ;
#102 = CARTESIAN_POINT ( 'NONE',  ( 1.500000000000000000, 0.0000000000000000000, 0.0000000000000000000 ) ) ;
#103 = CARTESIAN_POINT ( 'NONE',  ( 1.500000000000000000, 0.0000000000000000000, 0.0000000000000000000 ) ) ;
#104 = LOCAL_TIME ( 9, 39, 38.00000000000000000, #30 ) ;
#105 = VECTOR ( 'NONE', #138, 1000.000000000000000 ) ;
#106 = MANIFOLD_SOLID_BREP ( 'Boss-Extrude1', #11 ) ;
#107 = ORIENTED_EDGE ( 'NONE', *, *, #127, .T. ) ;
#108 = DIRECTION ( 'NONE',  ( -1.000000000000000000, -0.0000000000000000000, -0.0000000000000000000 ) ) ;
#109 = DATE_AND_TIME ( #139, #71 ) ;
#110 = ORIENTED_EDGE ( 'NONE', *, *, #44, .T. ) ;
#111 = CC_DESIGN_PERSON_AND_ORGANIZATION_ASSIGNMENT ( #14, #74, ( #80 ) ) ;
#112 = LOCAL_TIME ( 9, 39, 38.00000000000000000, #99 ) ;
#113 = CARTESIAN_POINT ( 'NONE',  ( -1.500000000000000000, 1.102182119232617714E-15, -9.000000000000000000 ) ) ;
#114 = DATE_TIME_ROLE ( 'classification_date' ) ;
#115 = ADVANCED_FACE ( 'NONE', ( #97 ), #121, .T. ) ;
#116 = DIRECTION ( 'NONE',  ( 0.0000000000000000000, 0.0000000000000000000, 1.000000000000000000 ) ) ;
#117 = DIRECTION ( 'NONE',  ( -1.000000000000000000, -0.0000000000000000000, -0.0000000000000000000 ) ) ;
#118 = APPROVAL_DATE_TIME ( #7, #162 ) ;
#119 = DIRECTION ( 'NONE',  ( 1.000000000000000000, 0.0000000000000000000, 0.0000000000000000000 ) ) ;
#120 = ORIENTED_EDGE ( 'NONE', *, *, #167, .T. ) ;
#121 = PLANE ( 'NONE',  #96 ) ;
#122 = EDGE_CURVE ( 'NONE', #151, #62, #154, .T. ) ;
#123 = PLANE ( 'NONE',  #42 ) ;
#124 = EDGE_LOOP ( 'NONE', ( #135, #165 ) ) ;
#125 = COORDINATED_UNIVERSAL_TIME_OFFSET ( 5, 0, .BEHIND. ) ;
#126 = DIRECTION ( 'NONE',  ( 0.0000000000000000000, 0.0000000000000000000, -1.000000000000000000 ) ) ;
#127 = EDGE_CURVE ( 'NONE', #72, #151, #131, .T. ) ;
#128 = APPLICATION_CONTEXT ( 'configuration controlled 3d designs of mechanical parts and assemblies' ) ;
#129 = APPROVAL_ROLE ( '' ) ;
#130 = CARTESIAN_POINT ( 'NONE',  ( 1.500000000000000000, 0.0000000000000000000, 9.000000000000000000 ) ) ;
#131 = CIRCLE ( 'NONE', #94, 9.000000000000000000 ) ;
#132 = DIRECTION ( 'NONE',  ( 1.000000000000000000, 0.0000000000000000000, 0.0000000000000000000 ) ) ;
#133 = ADVANCED_FACE ( 'NONE', ( #21 ), #64, .T. ) ;
#134 = PRODUCT_DEFINITION ( 'UNKNOWN', '', #155, #175 ) ;
#135 = ORIENTED_EDGE ( 'NONE', *, *, #44, .F. ) ;
#136 = PERSON_AND_ORGANIZATION ( #1, #32 ) ;
#137 = APPROVAL ( #40, 'UNSPECIFIED' ) ;
#138 = DIRECTION ( 'NONE',  ( -1.000000000000000000, -0.0000000000000000000, -0.0000000000000000000 ) ) ;
#139 = CALENDAR_DATE ( 2020, 13, 4 ) ;
#140 = DIRECTION ( 'NONE',  ( 0.0000000000000000000, 0.0000000000000000000, -1.000000000000000000 ) ) ;
#141 = SECURITY_CLASSIFICATION ( '', '', #76 ) ;
#142 = DIRECTION ( 'NONE',  ( 1.000000000000000000, 0.0000000000000000000, 0.0000000000000000000 ) ) ;
#143 = CIRCLE ( 'NONE', #89, 9.000000000000000000 ) ;
#144 = APPLICATION_PROTOCOL_DEFINITION ( 'international standard', 'config_control_design', 1994, #128 ) ;
#145 = MECHANICAL_CONTEXT ( 'NONE', #128, 'mechanical' ) ;
#146 = CC_DESIGN_APPROVAL ( #162, ( #141 ) ) ;
#147 = FACE_OUTER_BOUND ( 'NONE', #93, .T. ) ;
#148 = CC_DESIGN_PERSON_AND_ORGANIZATION_ASSIGNMENT ( #158, #77, ( #134 ) ) ;
#149 = APPROVAL_DATE_TIME ( #54, #174 ) ;
#150 = CALENDAR_DATE ( 2020, 13, 4 ) ;
#151 = VERTEX_POINT ( 'NONE', #73 ) ;
#152 = CC_DESIGN_SECURITY_CLASSIFICATION ( #141, ( #155 ) ) ;
#153 = ORIENTED_EDGE ( 'NONE', *, *, #79, .F. ) ;
#154 = LINE ( 'NONE', #130, #84 ) ;
#155 = PRODUCT_DEFINITION_FORMATION_WITH_SPECIFIED_SOURCE ( 'ANY', '', #80, .NOT_KNOWN. ) ;
#156 =( LENGTH_UNIT ( ) NAMED_UNIT ( * ) SI_UNIT ( .MILLI., .METRE. ) );
#157 = DIRECTION ( 'NONE',  ( 1.000000000000000000, 0.0000000000000000000, 0.0000000000000000000 ) ) ;
#158 = PERSON_AND_ORGANIZATION ( #1, #32 ) ;
#159 = APPROVAL_ROLE ( '' ) ;
#160 = APPLICATION_PROTOCOL_DEFINITION ( 'international standard', 'config_control_design', 1994, #63 ) ;
#161 = LINE ( 'NONE', #39, #105 ) ;
#162 = APPROVAL ( #37, 'UNSPECIFIED' ) ;
#163 = UNCERTAINTY_MEASURE_WITH_UNIT (LENGTH_MEASURE( 1.000000000000000082E-05 ), #156, 'distance_accuracy_value', 'NONE');
#164 = CC_DESIGN_DATE_AND_TIME_ASSIGNMENT ( #109, #171, ( #134 ) ) ;
#165 = ORIENTED_EDGE ( 'NONE', *, *, #70, .F. ) ;
#166 = PERSON_AND_ORGANIZATION ( #1, #32 ) ;
#167 = EDGE_CURVE ( 'NONE', #151, #72, #29, .T. ) ;
#168 = EDGE_LOOP ( 'NONE', ( #153, #31, #20, #110 ) ) ;
#169 = CALENDAR_DATE ( 2020, 13, 4 ) ;
#170 = PRODUCT_RELATED_PRODUCT_CATEGORY ( 'detail', '', ( #80 ) ) ;
#171 = DATE_TIME_ROLE ( 'creation_date' ) ;
#172 = PERSON_AND_ORGANIZATION ( #1, #32 ) ;
#173 = APPROVAL_STATUS ( 'not_yet_approved' ) ;
#174 = APPROVAL ( #173, 'UNSPECIFIED' ) ;
#175 = DESIGN_CONTEXT ( 'detailed design', #63, 'design' ) ;
ENDSEC;
END-ISO-10303-21;
