ISO-10303-21;
HEADER;
FILE_DESCRIPTION (( 'STEP AP203' ),
    '1' );
FILE_NAME ('20219-E0W.STEP',
    '2009-09-14T20:08:36',
    ( 'Admin' ),
    ( 'Thorlabs, Inc.' ),
    'SwSTEP 2.0',
    'SolidWorks 2007',
    '' );
FILE_SCHEMA (( 'CONFIG_CONTROL_DESIGN' ));
ENDSEC;

DATA;
#1 = VERTEX_POINT ( 'NONE', #21 ) ;
#2 = EDGE_CURVE ( 'NONE', #3, #11, #26, .T. ) ;
#3 = VERTEX_POINT ( 'NONE', #41 ) ;
#4 = ORIENTED_EDGE ( 'NONE', *, *, #5, .T. ) ;
#5 = EDGE_CURVE ( 'NONE', #1, #3, #62, .T. ) ;
#6 = ORIENTED_EDGE ( 'NONE', *, *, #2, .F. ) ;
#7 = ORIENTED_EDGE ( 'NONE', *, *, #8, .F. ) ;
#8 = EDGE_CURVE ( 'NONE', #1, #11, #53, .T. ) ;
#9 = ORIENTED_EDGE ( 'NONE', *, *, #10, .F. ) ;
#10 = EDGE_CURVE ( 'NONE', #146, #3, #56, .T. ) ;
#11 = VERTEX_POINT ( 'NONE', #39 ) ;
#12 = EDGE_CURVE ( 'NONE', #139, #147, #47, .T. ) ;
#13 = ORIENTED_EDGE ( 'NONE', *, *, #145, .F. ) ;
#14 = EDGE_LOOP ( 'NONE', ( #130, #131, #132, #133 ) ) ;
#15 = ADVANCED_FACE ( 'NONE', ( #48 ), #52, .T. ) ;
#16 = EDGE_LOOP ( 'NONE', ( #22, #24, #25 ) ) ;
#17 = EDGE_CURVE ( 'NONE', #147, #146, #92, .T. ) ;
#18 = EDGE_LOOP ( 'NONE', ( #7, #4, #150 ) ) ;
#19 = ADVANCED_FACE ( 'NONE', ( #63 ), #64, .F. ) ;
#20 = ADVANCED_FACE ( 'NONE', ( #88 ), #87, .T. ) ;
#21 = CARTESIAN_POINT ( 'NONE',  ( 0.0000000000000000000, 4.447525355812109700E-014, 1.999999999999974000 ) ) ;
#22 = ORIENTED_EDGE ( 'NONE', *, *, #12, .F. ) ;
#23 = ORGANIZATION ( 'UNSPECIFIED', 'UNSPECIFIED', '' ) ;
#24 = ORIENTED_EDGE ( 'NONE', *, *, #138, .T. ) ;
#25 = ORIENTED_EDGE ( 'NONE', *, *, #17, .F. ) ;
#26 = CIRCLE ( 'NONE', #29, 12.70000000000000100 ) ;
#27 = DIRECTION ( 'NONE',  ( 0.0000000000000000000, -1.836909530733566100E-016, 1.000000000000000000 ) ) ;
#28 = CARTESIAN_POINT ( 'NONE',  ( 0.0000000000000000000, -8.167804367444855800E-017, 2.444649245419455500 ) ) ;
#29 = AXIS2_PLACEMENT_3D ( 'NONE', #28, #27, #32 ) ;
#30 = CYLINDRICAL_SURFACE ( 'NONE', #33, 12.69999999999999900 ) ;
#31 = DIRECTION ( 'NONE',  ( 0.0000000000000000000, -1.000000000000000000, -1.707404996040164500E-016 ) ) ;
#32 = DIRECTION ( 'NONE',  ( 0.0000000000000000000, -1.000000000000000000, -1.707404996040164300E-016 ) ) ;
#33 = AXIS2_PLACEMENT_3D ( 'NONE', #35, #34, #31 ) ;
#34 = DIRECTION ( 'NONE',  ( 0.0000000000000000000, -1.836909530733566100E-016, 1.000000000000000000 ) ) ;
#35 = CARTESIAN_POINT ( 'NONE',  ( 0.0000000000000000000, 0.0000000000000000000, 2.000000000000000000 ) ) ;
#36 = CARTESIAN_POINT ( 'NONE',  ( 0.0000000000000000000, 0.0000000000000000000, 183.5899999999999700 ) ) ;
#37 = DIRECTION ( 'NONE',  ( 0.0000000000000000000, -1.836909530733566100E-016, 1.000000000000000000 ) ) ;
#38 = VECTOR ( 'NONE', #37, 1000.000000000000000 ) ;
#39 = CARTESIAN_POINT ( 'NONE',  ( 0.0000000000000000000, 12.69999999999990700, 2.444649245419456400 ) ) ;
#40 = AXIS2_PLACEMENT_3D ( 'NONE', #36, #61, #55 ) ;
#41 = CARTESIAN_POINT ( 'NONE',  ( -1.555250069354408000E-015, -12.69999999999987500, 2.444649245419454600 ) ) ;
#42 = CARTESIAN_POINT ( 'NONE',  ( 0.0000000000000000000, 0.0000000000000000000, 144.0970000000000100 ) ) ;
#43 = DIRECTION ( 'NONE',  ( 1.224606353822377000E-016, 1.000000000000000000, 0.0000000000000000000 ) ) ;
#44 = DIRECTION ( 'NONE',  ( 1.000000000000000000, -1.224606353822377300E-016, -2.249491082733206400E-032 ) ) ;
#45 = CARTESIAN_POINT ( 'NONE',  ( 0.0000000000000000000, 0.0000000000000000000, 144.0970000000000100 ) ) ;
#46 = AXIS2_PLACEMENT_3D ( 'NONE', #45, #44, #43 ) ;
#47 = CIRCLE ( 'NONE', #46, 146.0970000000000100 ) ;
#48 = FACE_OUTER_BOUND ( 'NONE', #16, .T. ) ;
#49 = DIRECTION ( 'NONE',  ( 0.0000000000000000000, -1.000000000000000000, -1.899804624025743900E-016 ) ) ;
#50 = DIRECTION ( 'NONE',  ( 1.000000000000000000, 0.0000000000000000000, 0.0000000000000000000 ) ) ;
#51 = AXIS2_PLACEMENT_3D ( 'NONE', #42, #50, #49 ) ;
#52 = SPHERICAL_SURFACE ( 'NONE', #51, 146.0970000000000100 ) ;
#53 = CIRCLE ( 'NONE', #60, 181.5900000000000000 ) ;
#54 = CARTESIAN_POINT ( 'NONE',  ( 0.0000000000000000000, -12.69999999999999900, 1.999999999999997800 ) ) ;
#55 = DIRECTION ( 'NONE',  ( -1.224606353822377300E-016, -1.000000000000000000, 0.0000000000000000000 ) ) ;
#56 = LINE ( 'NONE', #54, #38 ) ;
#57 = DIRECTION ( 'NONE',  ( 0.0000000000000000000, 0.0000000000000000000, -1.000000000000000000 ) ) ;
#58 = DIRECTION ( 'NONE',  ( 1.000000000000000000, 0.0000000000000000000, 0.0000000000000000000 ) ) ;
#59 = CARTESIAN_POINT ( 'NONE',  ( 0.0000000000000000000, 0.0000000000000000000, 183.5899999999999700 ) ) ;
#60 = AXIS2_PLACEMENT_3D ( 'NONE', #59, #58, #57 ) ;
#61 = DIRECTION ( 'NONE',  ( -1.000000000000000000, 1.224606353822377300E-016, 2.249491082733206400E-032 ) ) ;
#62 = CIRCLE ( 'NONE', #40, 181.5900000000000000 ) ;
#63 = FACE_OUTER_BOUND ( 'NONE', #18, .T. ) ;
#64 = SPHERICAL_SURFACE ( 'NONE', #66, 181.5900000000000000 ) ;
#65 = CARTESIAN_POINT ( 'NONE',  ( 0.0000000000000000000, 0.0000000000000000000, 2.000000000000000000 ) ) ;
#66 = AXIS2_PLACEMENT_3D ( 'NONE', #91, #90, #89 ) ;
#67 = DIRECTION ( 'NONE',  ( 0.0000000000000000000, -1.000000000000000000, -1.878145495644181100E-016 ) ) ;
#68 = DIRECTION ( 'NONE',  ( 0.0000000000000000000, -1.836909530733566100E-016, 1.000000000000000000 ) ) ;
#69 = CARTESIAN_POINT ( 'NONE',  ( 0.0000000000000000000, 6.331748100849065900E-016, -1.446956964897718700 ) ) ;
#70 = AXIS2_PLACEMENT_3D ( 'NONE', #69, #68, #67 ) ;
#71 = FACE_OUTER_BOUND ( 'NONE', #143, .T. ) ;
#72 = CARTESIAN_POINT ( 'NONE',  ( 0.0000000000000000000, 1.789113144743878900E-014, -2.000000000000001800 ) ) ;
#73 = DIRECTION ( 'NONE',  ( 0.0000000000000000000, 0.0000000000000000000, 1.000000000000000000 ) ) ;
#74 = DIRECTION ( 'NONE',  ( -1.000000000000000000, 0.0000000000000000000, 0.0000000000000000000 ) ) ;
#75 = AXIS2_PLACEMENT_3D ( 'NONE', #80, #74, #73 ) ;
#76 = CIRCLE ( 'NONE', #75, 146.0970000000000100 ) ;
#77 = DIRECTION ( 'NONE',  ( 0.0000000000000000000, -1.000000000000000000, -1.899804624025743900E-016 ) ) ;
#78 = DIRECTION ( 'NONE',  ( 1.000000000000000000, 0.0000000000000000000, 0.0000000000000000000 ) ) ;
#79 = AXIS2_PLACEMENT_3D ( 'NONE', #86, #78, #77 ) ;
#80 = CARTESIAN_POINT ( 'NONE',  ( 0.0000000000000000000, 0.0000000000000000000, 144.0970000000000100 ) ) ;
#81 = SPHERICAL_SURFACE ( 'NONE', #79, 146.0970000000000100 ) ;
#82 = FACE_OUTER_BOUND ( 'NONE', #136, .T. ) ;
#83 = DIRECTION ( 'NONE',  ( 0.0000000000000000000, -1.000000000000000000, -1.707404996040164500E-016 ) ) ;
#84 = DIRECTION ( 'NONE',  ( 0.0000000000000000000, -1.836909530733566100E-016, 1.000000000000000000 ) ) ;
#85 = AXIS2_PLACEMENT_3D ( 'NONE', #65, #84, #83 ) ;
#86 = CARTESIAN_POINT ( 'NONE',  ( 0.0000000000000000000, 0.0000000000000000000, 144.0970000000000100 ) ) ;
#87 = CYLINDRICAL_SURFACE ( 'NONE', #85, 12.69999999999999900 ) ;
#88 = FACE_OUTER_BOUND ( 'NONE', #14, .T. ) ;
#89 = DIRECTION ( 'NONE',  ( 0.0000000000000000000, 1.000000000000000000, 1.528474894852630300E-016 ) ) ;
#90 = DIRECTION ( 'NONE',  ( -1.000000000000000000, 0.0000000000000000000, 0.0000000000000000000 ) ) ;
#91 = CARTESIAN_POINT ( 'NONE',  ( 0.0000000000000000000, 0.0000000000000000000, 183.5899999999999700 ) ) ;
#92 = CIRCLE ( 'NONE', #70, 12.69999999999999900 ) ;
#93 = CARTESIAN_POINT ( 'NONE',  ( 1.555250069354421100E-015, 12.70000000000004200, -1.446956964897716500 ) ) ;
#94 = CARTESIAN_POINT ( 'NONE',  ( 0.0000000000000000000, -12.70000000000001700, -1.446956964897718700 ) ) ;
#95 = DIRECTION ( 'NONE',  ( 0.0000000000000000000, -1.000000000000000000, -1.878145495644181100E-016 ) ) ;
#96 = AXIS2_PLACEMENT_3D ( 'NONE', #129, #98, #95 ) ;
#97 = CIRCLE ( 'NONE', #96, 12.69999999999999900 ) ;
#98 = DIRECTION ( 'NONE',  ( 0.0000000000000000000, -1.836909530733566100E-016, 1.000000000000000000 ) ) ;
#99 = DIRECTION ( 'NONE',  ( 1.000000000000000000, 0.0000000000000000000, 0.0000000000000000000 ) ) ;
#100 = DIRECTION ( 'NONE',  ( 0.0000000000000000000, 0.0000000000000000000, 1.000000000000000000 ) ) ;
#101 = AXIS2_PLACEMENT_3D ( 'NONE', #108, #100, #99 ) ;
#102 = ADVANCED_BREP_SHAPE_REPRESENTATION ( '20219-E0W', ( #141, #101 ), #103 ) ;
#103 =( GEOMETRIC_REPRESENTATION_CONTEXT ( 3 ) GLOBAL_UNCERTAINTY_ASSIGNED_CONTEXT ( ( #104 ) ) GLOBAL_UNIT_ASSIGNED_CONTEXT ( ( #107, #106, #105 ) ) REPRESENTATION_CONTEXT ( 'NONE', 'WORKASPACE' ) );
#104 = UNCERTAINTY_MEASURE_WITH_UNIT (LENGTH_MEASURE( 1.000000000000000100E-005 ), #107, 'distance_accuracy_value', 'NONE');
#105 =( NAMED_UNIT ( * ) SI_UNIT ( $, .STERADIAN. ) SOLID_ANGLE_UNIT ( ) );
#106 =( NAMED_UNIT ( * ) PLANE_ANGLE_UNIT ( ) SI_UNIT ( $, .RADIAN. ) );
#107 =( LENGTH_UNIT ( ) NAMED_UNIT ( * ) SI_UNIT ( .MILLI., .METRE. ) );
#108 = CARTESIAN_POINT ( 'NONE',  ( 0.0000000000000000000, 0.0000000000000000000, 0.0000000000000000000 ) ) ;
#109 = DIRECTION ( 'NONE',  ( 0.0000000000000000000, -1.000000000000000000, -1.707404996040164300E-016 ) ) ;
#110 = DIRECTION ( 'NONE',  ( 0.0000000000000000000, -1.836909530733566100E-016, 1.000000000000000000 ) ) ;
#111 = CARTESIAN_POINT ( 'NONE',  ( 0.0000000000000000000, -8.167804367444855800E-017, 2.444649245419455500 ) ) ;
#112 = AXIS2_PLACEMENT_3D ( 'NONE', #111, #110, #109 ) ;
#113 = DIRECTION ( 'NONE',  ( 0.0000000000000000000, 1.000000000000000000, 1.528474894852630300E-016 ) ) ;
#114 = DIRECTION ( 'NONE',  ( -1.000000000000000000, 0.0000000000000000000, 0.0000000000000000000 ) ) ;
#115 = CARTESIAN_POINT ( 'NONE',  ( 0.0000000000000000000, 0.0000000000000000000, 183.5899999999999700 ) ) ;
#116 = AXIS2_PLACEMENT_3D ( 'NONE', #115, #114, #113 ) ;
#117 = CIRCLE ( 'NONE', #112, 12.70000000000000100 ) ;
#118 = SPHERICAL_SURFACE ( 'NONE', #116, 181.5900000000000000 ) ;
#119 = FACE_OUTER_BOUND ( 'NONE', #152, .T. ) ;
#120 = DIRECTION ( 'NONE',  ( 0.0000000000000000000, -1.836909530733566100E-016, 1.000000000000000000 ) ) ;
#121 = VECTOR ( 'NONE', #120, 1000.000000000000000 ) ;
#122 = CARTESIAN_POINT ( 'NONE',  ( 1.555250069354419100E-015, 12.69999999999999900, 2.000000000000002200 ) ) ;
#123 = LINE ( 'NONE', #122, #121 ) ;
#124 = PERSON ( 'UNSPECIFIED', 'UNSPECIFIED', 'UNSPECIFIED', ('UNSPECIFIED'), ('UNSPECIFIED'), ('UNSPECIFIED') ) ;
#125 = PRODUCT ( '20219-E0W', '20219-E0W', '', ( #126 ) ) ;
#126 = MECHANICAL_CONTEXT ( 'NONE', #128, 'mechanical' ) ;
#127 = APPLICATION_PROTOCOL_DEFINITION ( 'international standard', 'config_control_design', 1994, #128 ) ;
#128 = APPLICATION_CONTEXT ( 'configuration controlled 3d designs of mechanical parts and assemblies' ) ;
#129 = CARTESIAN_POINT ( 'NONE',  ( 0.0000000000000000000, 6.331748100849065900E-016, -1.446956964897718700 ) ) ;
#130 = ORIENTED_EDGE ( 'NONE', *, *, #149, .F. ) ;
#131 = ORIENTED_EDGE ( 'NONE', *, *, #17, .T. ) ;
#132 = ORIENTED_EDGE ( 'NONE', *, *, #10, .T. ) ;
#133 = ORIENTED_EDGE ( 'NONE', *, *, #156, .F. ) ;
#134 = CLOSED_SHELL ( 'NONE', ( #142, #135, #19, #151, #15, #20 ) ) ;
#135 = ADVANCED_FACE ( 'NONE', ( #82 ), #81, .T. ) ;
#136 = EDGE_LOOP ( 'NONE', ( #137, #140, #13 ) ) ;
#137 = ORIENTED_EDGE ( 'NONE', *, *, #138, .F. ) ;
#138 = EDGE_CURVE ( 'NONE', #139, #146, #76, .T. ) ;
#139 = VERTEX_POINT ( 'NONE', #72 ) ;
#140 = ORIENTED_EDGE ( 'NONE', *, *, #12, .T. ) ;
#141 = MANIFOLD_SOLID_BREP ( 'NONE', #134 ) ;
#142 = ADVANCED_FACE ( 'NONE', ( #71 ), #30, .T. ) ;
#143 = EDGE_LOOP ( 'NONE', ( #144, #148, #6, #9 ) ) ;
#144 = ORIENTED_EDGE ( 'NONE', *, *, #145, .T. ) ;
#145 = EDGE_CURVE ( 'NONE', #146, #147, #97, .T. ) ;
#146 = VERTEX_POINT ( 'NONE', #94 ) ;
#147 = VERTEX_POINT ( 'NONE', #93 ) ;
#148 = ORIENTED_EDGE ( 'NONE', *, *, #149, .T. ) ;
#149 = EDGE_CURVE ( 'NONE', #147, #11, #123, .T. ) ;
#150 = ORIENTED_EDGE ( 'NONE', *, *, #2, .T. ) ;
#151 = ADVANCED_FACE ( 'NONE', ( #119 ), #118, .F. ) ;
#152 = EDGE_LOOP ( 'NONE', ( #153, #154, #155 ) ) ;
#153 = ORIENTED_EDGE ( 'NONE', *, *, #5, .F. ) ;
#154 = ORIENTED_EDGE ( 'NONE', *, *, #8, .T. ) ;
#155 = ORIENTED_EDGE ( 'NONE', *, *, #156, .T. ) ;
#156 = EDGE_CURVE ( 'NONE', #11, #3, #117, .T. ) ;
#157 = SHAPE_DEFINITION_REPRESENTATION ( #158, #102 ) ;
#158 = PRODUCT_DEFINITION_SHAPE ( 'NONE', 'NONE',  #166 ) ;
#159 = LOCAL_TIME ( 16, 8, 36.00000000000000000, #160 ) ;
#160 = COORDINATED_UNIVERSAL_TIME_OFFSET ( 5, 0, .BEHIND. ) ;
#161 = APPROVAL_PERSON_ORGANIZATION ( #165, #163, #162 ) ;
#162 = APPROVAL_ROLE ( '' ) ;
#163 = APPROVAL ( #164, 'UNSPECIFIED' ) ;
#164 = APPROVAL_STATUS ( 'not_yet_approved' ) ;
#165 = PERSON_AND_ORGANIZATION ( #124, #23 ) ;
#166 = PRODUCT_DEFINITION ( 'UNKNOWN', '', #198, #212 ) ;
#167 = PRODUCT_RELATED_PRODUCT_CATEGORY ( 'detail', '', ( #125 ) ) ;
#168 = CC_DESIGN_SECURITY_CLASSIFICATION ( #189, ( #198 ) ) ;
#169 = CC_DESIGN_APPROVAL ( #177, ( #189 ) ) ;
#170 = APPROVAL_DATE_TIME ( #171, #177 ) ;
#171 = DATE_AND_TIME ( #172, #173 ) ;
#172 = CALENDAR_DATE ( 2009, 14, 9 ) ;
#173 = LOCAL_TIME ( 16, 8, 36.00000000000000000, #174 ) ;
#174 = COORDINATED_UNIVERSAL_TIME_OFFSET ( 5, 0, .BEHIND. ) ;
#175 = APPROVAL_PERSON_ORGANIZATION ( #179, #177, #176 ) ;
#176 = APPROVAL_ROLE ( '' ) ;
#177 = APPROVAL ( #178, 'UNSPECIFIED' ) ;
#178 = APPROVAL_STATUS ( 'not_yet_approved' ) ;
#179 = PERSON_AND_ORGANIZATION ( #124, #23 ) ;
#180 = CC_DESIGN_DATE_AND_TIME_ASSIGNMENT ( #182, #181, ( #189 ) ) ;
#181 = DATE_TIME_ROLE ( 'classification_date' ) ;
#182 = DATE_AND_TIME ( #183, #184 ) ;
#183 = CALENDAR_DATE ( 2009, 14, 9 ) ;
#184 = LOCAL_TIME ( 16, 8, 36.00000000000000000, #185 ) ;
#185 = COORDINATED_UNIVERSAL_TIME_OFFSET ( 5, 0, .BEHIND. ) ;
#186 = CC_DESIGN_PERSON_AND_ORGANIZATION_ASSIGNMENT ( #188, #187, ( #189 ) ) ;
#187 = PERSON_AND_ORGANIZATION_ROLE ( 'classification_officer' ) ;
#188 = PERSON_AND_ORGANIZATION ( #124, #23 ) ;
#189 = SECURITY_CLASSIFICATION ( '', '', #190 ) ;
#190 = SECURITY_CLASSIFICATION_LEVEL ( 'unclassified' ) ;
#191 = PERSON_AND_ORGANIZATION_ROLE ( 'design_owner' ) ;
#192 = PERSON_AND_ORGANIZATION ( #124, #23 ) ;
#193 = DATE_AND_TIME ( #223, #224 ) ;
#194 = APPROVAL_ROLE ( '' ) ;
#195 = APPROVAL ( #196, 'UNSPECIFIED' ) ;
#196 = APPROVAL_STATUS ( 'not_yet_approved' ) ;
#197 = PERSON_AND_ORGANIZATION ( #124, #23 ) ;
#198 = PRODUCT_DEFINITION_FORMATION_WITH_SPECIFIED_SOURCE ( 'ANY', '', #125, .NOT_KNOWN. ) ;
#199 = CC_DESIGN_DATE_AND_TIME_ASSIGNMENT ( #201, #200, ( #166 ) ) ;
#200 = DATE_TIME_ROLE ( 'creation_date' ) ;
#201 = DATE_AND_TIME ( #202, #203 ) ;
#202 = CALENDAR_DATE ( 2009, 14, 9 ) ;
#203 = LOCAL_TIME ( 16, 8, 36.00000000000000000, #204 ) ;
#204 = COORDINATED_UNIVERSAL_TIME_OFFSET ( 5, 0, .BEHIND. ) ;
#205 = CC_DESIGN_PERSON_AND_ORGANIZATION_ASSIGNMENT ( #207, #206, ( #166 ) ) ;
#206 = PERSON_AND_ORGANIZATION_ROLE ( 'creator' ) ;
#207 = PERSON_AND_ORGANIZATION ( #124, #23 ) ;
#208 = CC_DESIGN_APPROVAL ( #163, ( #166 ) ) ;
#209 = APPROVAL_DATE_TIME ( #210, #163 ) ;
#210 = DATE_AND_TIME ( #211, #159 ) ;
#211 = CALENDAR_DATE ( 2009, 14, 9 ) ;
#212 = DESIGN_CONTEXT ( 'detailed design', #214, 'design' ) ;
#213 = APPLICATION_PROTOCOL_DEFINITION ( 'international standard', 'config_control_design', 1994, #214 ) ;
#214 = APPLICATION_CONTEXT ( 'configuration controlled 3d designs of mechanical parts and assemblies' ) ;
#215 = CC_DESIGN_PERSON_AND_ORGANIZATION_ASSIGNMENT ( #217, #216, ( #198 ) ) ;
#216 = PERSON_AND_ORGANIZATION_ROLE ( 'design_supplier' ) ;
#217 = PERSON_AND_ORGANIZATION ( #124, #23 ) ;
#218 = CC_DESIGN_PERSON_AND_ORGANIZATION_ASSIGNMENT ( #220, #219, ( #198 ) ) ;
#219 = PERSON_AND_ORGANIZATION_ROLE ( 'creator' ) ;
#220 = PERSON_AND_ORGANIZATION ( #124, #23 ) ;
#221 = CC_DESIGN_APPROVAL ( #195, ( #198 ) ) ;
#222 = APPROVAL_DATE_TIME ( #193, #195 ) ;
#223 = CALENDAR_DATE ( 2009, 14, 9 ) ;
#224 = LOCAL_TIME ( 16, 8, 36.00000000000000000, #225 ) ;
#225 = COORDINATED_UNIVERSAL_TIME_OFFSET ( 5, 0, .BEHIND. ) ;
#226 = APPROVAL_PERSON_ORGANIZATION ( #197, #195, #194 ) ;
#227 = CC_DESIGN_PERSON_AND_ORGANIZATION_ASSIGNMENT ( #192, #191, ( #125 ) ) ;
ENDSEC;
END-ISO-10303-21;
