ISO-10303-21;
HEADER;
FILE_DESCRIPTION (( 'STEP AP203' ),
    '1' );
FILE_NAME ('25024-E0W.STEP',
    '2012-09-28T16:22:45',
    ( 'Admin' ),
    ( 'Thorlabs, Inc.' ),
    'SwSTEP 2.0',
    'SolidWorks 2011',
    '' );
FILE_SCHEMA (( 'CONFIG_CONTROL_DESIGN' ));
ENDSEC;

DATA;
#1 = CARTESIAN_POINT ( 'NONE',  ( 0.0000000000000000000, -1.649431272718333700E-015, 9.438255012321221200 ) ) ;
#2 = DIRECTION ( 'NONE',  ( -0.0000000000000000000, 3.061616997868382600E-016, -1.000000000000000000 ) ) ;
#3 = AXIS2_PLACEMENT_3D ( 'NONE', #1, #2, #4 ) ;
#4 = DIRECTION ( 'NONE',  ( 0.0000000000000000000, 1.000000000000000000, 2.731847993664262700E-016 ) ) ;
#5 = APPROVAL_ROLE ( '' ) ;
#6 = CALENDAR_DATE ( 2012, 28, 9 ) ;
#7 = CC_DESIGN_DATE_AND_TIME_ASSIGNMENT ( #8, #9, ( #264 ) ) ;
#8 = DATE_AND_TIME ( #6, #248 ) ;
#9 = DATE_TIME_ROLE ( 'creation_date' ) ;
#10 = APPROVAL_PERSON_ORGANIZATION ( #25, #23, #5 ) ;
#11 = COORDINATED_UNIVERSAL_TIME_OFFSET ( 5, 0, .BEHIND. ) ;
#12 = LOCAL_TIME ( 12, 22, 45.00000000000000000, #11 ) ;
#13 = APPROVAL_DATE_TIME ( #14, #23 ) ;
#14 = DATE_AND_TIME ( #15, #12 ) ;
#15 = CALENDAR_DATE ( 2012, 28, 9 ) ;
#16 = CC_DESIGN_APPROVAL ( #23, ( #26 ) ) ;
#17 = COORDINATED_UNIVERSAL_TIME_OFFSET ( 5, 0, .BEHIND. ) ;
#18 = LOCAL_TIME ( 12, 22, 45.00000000000000000, #17 ) ;
#19 = CALENDAR_DATE ( 2012, 28, 9 ) ;
#20 = DATE_AND_TIME ( #19, #18 ) ;
#21 = DATE_TIME_ROLE ( 'classification_date' ) ;
#22 = CC_DESIGN_DATE_AND_TIME_ASSIGNMENT ( #20, #21, ( #44 ) ) ;
#23 = APPROVAL ( #24, 'UNSPECIFIED' ) ;
#24 = APPROVAL_STATUS ( 'not_yet_approved' ) ;
#25 = PERSON_AND_ORGANIZATION ( #173, #271 ) ;
#26 = PRODUCT_DEFINITION_FORMATION_WITH_SPECIFIED_SOURCE ( 'ANY', '', #174, .NOT_KNOWN. ) ;
#27 = EDGE_LOOP ( 'NONE', ( #103, #101 ) ) ;
#28 = EDGE_CURVE ( 'NONE', #95, #71, #105, .T. ) ;
#29 = ADVANCED_FACE ( 'NONE', ( #287 ), #132, .T. ) ;
#30 = ORIENTED_EDGE ( 'NONE', *, *, #28, .T. ) ;
#31 = EDGE_LOOP ( 'NONE', ( #33, #30, #111, #109 ) ) ;
#32 = ORIENTED_EDGE ( 'NONE', *, *, #28, .F. ) ;
#33 = ORIENTED_EDGE ( 'NONE', *, *, #70, .F. ) ;
#34 = ORIENTED_EDGE ( 'NONE', *, *, #83, .T. ) ;
#35 = ORIENTED_EDGE ( 'NONE', *, *, #79, .T. ) ;
#36 = ORIENTED_EDGE ( 'NONE', *, *, #66, .F. ) ;
#37 = ADVANCED_FACE ( 'NONE', ( #136 ), #128, .T. ) ;
#38 = ORIENTED_EDGE ( 'NONE', *, *, #41, .T. ) ;
#39 = ADVANCED_FACE ( 'NONE', ( #131 ), #130, .F. ) ;
#40 = ORIENTED_EDGE ( 'NONE', *, *, #84, .F. ) ;
#41 = EDGE_CURVE ( 'NONE', #68, #69, #298, .T. ) ;
#42 = ORIENTED_EDGE ( 'NONE', *, *, #41, .F. ) ;
#43 = SECURITY_CLASSIFICATION_LEVEL ( 'unclassified' ) ;
#44 = SECURITY_CLASSIFICATION ( '', '', #43 ) ;
#45 = ORIENTED_EDGE ( 'NONE', *, *, #50, .F. ) ;
#46 = ORIENTED_EDGE ( 'NONE', *, *, #58, .T. ) ;
#47 = EDGE_LOOP ( 'NONE', ( #99, #89, #67, #60 ) ) ;
#48 = EDGE_CURVE ( 'NONE', #51, #54, #292, .T. ) ;
#49 = EDGE_LOOP ( 'NONE', ( #45, #57, #46, #96 ) ) ;
#50 = EDGE_CURVE ( 'NONE', #51, #52, #135, .T. ) ;
#51 = VERTEX_POINT ( 'NONE', #172 ) ;
#52 = VERTEX_POINT ( 'NONE', #245 ) ;
#53 = CC_DESIGN_PERSON_AND_ORGANIZATION_ASSIGNMENT ( #73, #94, ( #26 ) ) ;
#54 = VERTEX_POINT ( 'NONE', #171 ) ;
#55 = ADVANCED_FACE ( 'NONE', ( #166 ), #134, .T. ) ;
#56 = VERTEX_POINT ( 'NONE', #163 ) ;
#57 = ORIENTED_EDGE ( 'NONE', *, *, #48, .T. ) ;
#58 = EDGE_CURVE ( 'NONE', #54, #56, #162, .T. ) ;
#59 = MANIFOLD_SOLID_BREP ( '25024-001-1-solid1', #93 ) ;
#60 = ORIENTED_EDGE ( 'NONE', *, *, #86, .F. ) ;
#61 = EDGE_LOOP ( 'NONE', ( #72, #35, #34, #32 ) ) ;
#62 = ADVANCED_FACE ( 'NONE', ( #168 ), #165, .T. ) ;
#63 = ORIENTED_EDGE ( 'NONE', *, *, #66, .T. ) ;
#64 = VERTEX_POINT ( 'NONE', #157 ) ;
#65 = ORIENTED_EDGE ( 'NONE', *, *, #82, .T. ) ;
#66 = EDGE_CURVE ( 'NONE', #68, #64, #195, .T. ) ;
#67 = ORIENTED_EDGE ( 'NONE', *, *, #58, .F. ) ;
#68 = VERTEX_POINT ( 'NONE', #150 ) ;
#69 = VERTEX_POINT ( 'NONE', #161 ) ;
#70 = EDGE_CURVE ( 'NONE', #95, #56, #164, .T. ) ;
#71 = VERTEX_POINT ( 'NONE', #189 ) ;
#72 = ORIENTED_EDGE ( 'NONE', *, *, #82, .F. ) ;
#73 = PERSON_AND_ORGANIZATION ( #173, #271 ) ;
#74 = PERSON_AND_ORGANIZATION ( #173, #271 ) ;
#75 = EDGE_LOOP ( 'NONE', ( #40, #36, #38 ) ) ;
#76 = ORIENTED_EDGE ( 'NONE', *, *, #84, .T. ) ;
#77 = EDGE_LOOP ( 'NONE', ( #80, #76, #42 ) ) ;
#78 = ORIENTED_EDGE ( 'NONE', *, *, #100, .F. ) ;
#79 = EDGE_CURVE ( 'NONE', #64, #68, #184, .T. ) ;
#80 = ORIENTED_EDGE ( 'NONE', *, *, #79, .F. ) ;
#81 = ORIENTED_EDGE ( 'NONE', *, *, #83, .F. ) ;
#82 = EDGE_CURVE ( 'NONE', #64, #95, #236, .T. ) ;
#83 = EDGE_CURVE ( 'NONE', #68, #71, #233, .T. ) ;
#84 = EDGE_CURVE ( 'NONE', #64, #69, #183, .T. ) ;
#85 = ADVANCED_FACE ( 'NONE', ( #229 ), #182, .F. ) ;
#86 = EDGE_CURVE ( 'NONE', #71, #54, #216, .T. ) ;
#87 = EDGE_LOOP ( 'NONE', ( #63, #65, #78, #81 ) ) ;
#88 = PERSON_AND_ORGANIZATION_ROLE ( 'design_supplier' ) ;
#89 = ORIENTED_EDGE ( 'NONE', *, *, #70, .T. ) ;
#90 = CC_DESIGN_PERSON_AND_ORGANIZATION_ASSIGNMENT ( #92, #91, ( #44 ) ) ;
#91 = PERSON_AND_ORGANIZATION_ROLE ( 'classification_officer' ) ;
#92 = PERSON_AND_ORGANIZATION ( #173, #271 ) ;
#93 = CLOSED_SHELL ( 'NONE', ( #55, #98, #62, #85, #39, #37, #29, #108, #115 ) ) ;
#94 = PERSON_AND_ORGANIZATION_ROLE ( 'creator' ) ;
#95 = VERTEX_POINT ( 'NONE', #218 ) ;
#96 = ORIENTED_EDGE ( 'NONE', *, *, #97, .F. ) ;
#97 = EDGE_CURVE ( 'NONE', #52, #56, #220, .T. ) ;
#98 = ADVANCED_FACE ( 'NONE', ( #226 ), #208, .T. ) ;
#99 = ORIENTED_EDGE ( 'NONE', *, *, #100, .T. ) ;
#100 = EDGE_CURVE ( 'NONE', #71, #95, #222, .T. ) ;
#101 = ORIENTED_EDGE ( 'NONE', *, *, #50, .T. ) ;
#102 = EDGE_LOOP ( 'NONE', ( #114, #107, #112, #113 ) ) ;
#103 = ORIENTED_EDGE ( 'NONE', *, *, #104, .T. ) ;
#104 = EDGE_CURVE ( 'NONE', #52, #51, #202, .T. ) ;
#105 = CIRCLE ( 'NONE', #3, 12.70000000000000100 ) ;
#106 = CC_DESIGN_PERSON_AND_ORGANIZATION_ASSIGNMENT ( #74, #88, ( #26 ) ) ;
#107 = ORIENTED_EDGE ( 'NONE', *, *, #104, .F. ) ;
#108 = ADVANCED_FACE ( 'NONE', ( #199 ), #198, .T. ) ;
#109 = ORIENTED_EDGE ( 'NONE', *, *, #110, .F. ) ;
#110 = EDGE_CURVE ( 'NONE', #56, #54, #204, .T. ) ;
#111 = ORIENTED_EDGE ( 'NONE', *, *, #86, .T. ) ;
#112 = ORIENTED_EDGE ( 'NONE', *, *, #97, .T. ) ;
#113 = ORIENTED_EDGE ( 'NONE', *, *, #110, .T. ) ;
#114 = ORIENTED_EDGE ( 'NONE', *, *, #48, .F. ) ;
#115 = ADVANCED_FACE ( 'NONE', ( #143 ), #141, .T. ) ;
#116 = CALENDAR_DATE ( 2012, 28, 9 ) ;
#117 = DATE_AND_TIME ( #116, #125 ) ;
#118 = APPROVAL_STATUS ( 'not_yet_approved' ) ;
#119 = APPROVAL_DATE_TIME ( #117, #122 ) ;
#120 = APPROVAL_PERSON_ORGANIZATION ( #124, #122, #123 ) ;
#121 = CC_DESIGN_APPROVAL ( #122, ( #44 ) ) ;
#122 = APPROVAL ( #118, 'UNSPECIFIED' ) ;
#123 = APPROVAL_ROLE ( '' ) ;
#124 = PERSON_AND_ORGANIZATION ( #173, #271 ) ;
#125 = LOCAL_TIME ( 12, 22, 45.00000000000000000, #127 ) ;
#126 = CC_DESIGN_SECURITY_CLASSIFICATION ( #44, ( #26 ) ) ;
#127 = COORDINATED_UNIVERSAL_TIME_OFFSET ( 5, 0, .BEHIND. ) ;
#128 = CONICAL_SURFACE ( 'NONE', #133, 12.70000000000000100, 0.7853981633975587500 ) ;
#129 = CARTESIAN_POINT ( 'NONE',  ( 0.0000000000000000000, 1.072509038427183100E-014, 15.30000000000000800 ) ) ;
#130 = SPHERICAL_SURFACE ( 'NONE', #243, 13.80000000000000600 ) ;
#131 = FACE_OUTER_BOUND ( 'NONE', #75, .T. ) ;
#132 = CYLINDRICAL_SURFACE ( 'NONE', #288, 12.69999999999999900 ) ;
#133 = AXIS2_PLACEMENT_3D ( 'NONE', #275, #247, #246 ) ;
#134 = CONICAL_SURFACE ( 'NONE', #297, 12.55857864376268800, 0.7853981633974490600 ) ;
#135 = CIRCLE ( 'NONE', #293, 12.55857864376268800 ) ;
#136 = FACE_OUTER_BOUND ( 'NONE', #61, .T. ) ;
#137 = AXIS2_PLACEMENT_3D ( 'NONE', #286, #285, #284 ) ;
#138 = DIRECTION ( 'NONE',  ( 0.0000000000000000000, 1.000000000000000000, 3.073328992872296900E-016 ) ) ;
#139 = DIRECTION ( 'NONE',  ( -0.0000000000000000000, 3.061616997868382600E-016, -1.000000000000000000 ) ) ;
#140 = DIRECTION ( 'NONE',  ( 0.0000000000000000000, -1.000000000000000000, -3.107937555406665100E-016 ) ) ;
#141 = PLANE ( 'NONE',  #137 ) ;
#142 = AXIS2_PLACEMENT_3D ( 'NONE', #207, #206, #140 ) ;
#143 = FACE_OUTER_BOUND ( 'NONE', #27, .T. ) ;
#144 = DIRECTION ( 'NONE',  ( 0.0000000000000000000, 1.000000000000000000, 3.107937555406665100E-016 ) ) ;
#145 = DIRECTION ( 'NONE',  ( -0.0000000000000000000, 3.061616997868382600E-016, -1.000000000000000000 ) ) ;
#146 = CARTESIAN_POINT ( 'NONE',  ( 0.0000000000000000000, 1.699443474555835200E-015, -1.500000000000001600 ) ) ;
#147 = CARTESIAN_POINT ( 'NONE',  ( 0.0000000000000000000, 0.0000000000000000000, 0.0000000000000000000 ) ) ;
#148 = DIRECTION ( 'NONE',  ( 0.0000000000000000000, 1.000000000000000000, 2.731847993664262700E-016 ) ) ;
#149 = CARTESIAN_POINT ( 'NONE',  ( 0.0000000000000000000, -1.692729075530098900E-015, 9.579676368558500200 ) ) ;
#150 = CARTESIAN_POINT ( 'NONE',  ( 0.0000000000000000000, 12.55857864376269000, 9.579676368558503800 ) ) ;
#151 = DIRECTION ( 'NONE',  ( -0.0000000000000000000, 3.061616997868382600E-016, -1.000000000000000000 ) ) ;
#152 = DIRECTION ( 'NONE',  ( 0.0000000000000000000, 1.000000000000000000, 3.073328992872296900E-016 ) ) ;
#153 = DIRECTION ( 'NONE',  ( -0.0000000000000000000, 3.061616997868382600E-016, -1.000000000000000000 ) ) ;
#154 = AXIS2_PLACEMENT_3D ( 'NONE', #167, #153, #152 ) ;
#155 = AXIS2_PLACEMENT_3D ( 'NONE', #156, #151, #148 ) ;
#156 = CARTESIAN_POINT ( 'NONE',  ( 0.0000000000000000000, -1.649431272718333700E-015, 9.438255012321221200 ) ) ;
#157 = CARTESIAN_POINT ( 'NONE',  ( 1.537982313792428900E-015, -12.55857864376267900, 9.579676368558494900 ) ) ;
#158 = DIRECTION ( 'NONE',  ( 0.0000000000000000000, -1.000000000000000000, -3.107937555406665100E-016 ) ) ;
#159 = DIRECTION ( 'NONE',  ( 0.0000000000000000000, -3.061616997868382600E-016, 1.000000000000000000 ) ) ;
#160 = CARTESIAN_POINT ( 'NONE',  ( 0.0000000000000000000, 1.699443474555835200E-015, -1.500000000000001600 ) ) ;
#161 = CARTESIAN_POINT ( 'NONE',  ( 0.0000000000000000000, 1.579512813274187600E-014, 1.500000000000001300 ) ) ;
#162 = CIRCLE ( 'NONE', #154, 12.69999999999999800 ) ;
#163 = CARTESIAN_POINT ( 'NONE',  ( 1.555301434917138400E-015, -12.69999999999999600, -1.358578643762695900 ) ) ;
#164 = LINE ( 'NONE', #188, #187 ) ;
#165 = CONICAL_SURFACE ( 'NONE', #155, 12.70000000000000100, 0.7853981633975587500 ) ;
#166 = FACE_OUTER_BOUND ( 'NONE', #49, .T. ) ;
#167 = CARTESIAN_POINT ( 'NONE',  ( 0.0000000000000000000, 1.656145671744060700E-015, -1.358578643762692100 ) ) ;
#168 = FACE_OUTER_BOUND ( 'NONE', #87, .T. ) ;
#169 = DIRECTION ( 'NONE',  ( 0.0000000000000000000, 1.000000000000000000, 3.107937555406665100E-016 ) ) ;
#170 = DIRECTION ( 'NONE',  ( -0.0000000000000000000, 3.061616997868382600E-016, -1.000000000000000000 ) ) ;
#171 = CARTESIAN_POINT ( 'NONE',  ( 0.0000000000000000000, 12.69999999999999900, -1.358578643762688100 ) ) ;
#172 = CARTESIAN_POINT ( 'NONE',  ( 1.546641874354783400E-015, 12.55857864376269000, -1.499999999999997600 ) ) ;
#173 = PERSON ( 'UNSPECIFIED', 'UNSPECIFIED', 'UNSPECIFIED', ('UNSPECIFIED'), ('UNSPECIFIED'), ('UNSPECIFIED') ) ;
#174 = PRODUCT ( '25024-E0W', '25024-E0W', '', ( #175 ) ) ;
#175 = MECHANICAL_CONTEXT ( 'NONE', #277, 'mechanical' ) ;
#176 = APPLICATION_PROTOCOL_DEFINITION ( 'international standard', 'config_control_design', 1994, #277 ) ;
#177 = DIRECTION ( 'NONE',  ( 1.000000000000000000, 0.0000000000000000000, 0.0000000000000000000 ) ) ;
#178 = DIRECTION ( 'NONE',  ( 0.0000000000000000000, 0.0000000000000000000, 1.000000000000000000 ) ) ;
#179 = DIRECTION ( 'NONE',  ( -0.0000000000000000000, 3.061616997868382600E-016, -1.000000000000000000 ) ) ;
#180 = AXIS2_PLACEMENT_3D ( 'NONE', #185, #227, #219 ) ;
#181 = CARTESIAN_POINT ( 'NONE',  ( 1.555301434917138600E-015, -12.70000000000000300, 9.438255012321217700 ) ) ;
#182 = SPHERICAL_SURFACE ( 'NONE', #180, 13.80000000000000600 ) ;
#183 = CIRCLE ( 'NONE', #237, 13.80000000000000600 ) ;
#184 = CIRCLE ( 'NONE', #239, 12.55857864376269200 ) ;
#185 = CARTESIAN_POINT ( 'NONE',  ( 0.0000000000000000000, 1.072509038427183100E-014, 15.30000000000000800 ) ) ;
#186 = DIRECTION ( 'NONE',  ( -0.0000000000000000000, 3.061616997868382600E-016, -1.000000000000000000 ) ) ;
#187 = VECTOR ( 'NONE', #186, 1000.000000000000000 ) ;
#188 = CARTESIAN_POINT ( 'NONE',  ( 1.555301434917138400E-015, -12.69999999999999800, -1.500000000000004000 ) ) ;
#189 = CARTESIAN_POINT ( 'NONE',  ( 0.0000000000000000000, 12.69999999999999900, 9.438255012321224800 ) ) ;
#190 = CARTESIAN_POINT ( 'NONE',  ( 0.0000000000000000000, -1.692729075530098900E-015, 9.579676368558500200 ) ) ;
#191 = CARTESIAN_POINT ( 'NONE',  ( 0.0000000000000000000, 1.072509038427183100E-014, 15.30000000000000800 ) ) ;
#192 = DIRECTION ( 'NONE',  ( 0.0000000000000000000, 1.000000000000000000, 2.762611160361479200E-016 ) ) ;
#193 = DIRECTION ( 'NONE',  ( -0.0000000000000000000, 3.061616997868382600E-016, -1.000000000000000000 ) ) ;
#194 = AXIS2_PLACEMENT_3D ( 'NONE', #149, #193, #192 ) ;
#195 = CIRCLE ( 'NONE', #194, 12.55857864376269200 ) ;
#196 = DIRECTION ( 'NONE',  ( 0.0000000000000000000, 1.000000000000000000, 2.731847993664262700E-016 ) ) ;
#197 = AXIS2_PLACEMENT_3D ( 'NONE', #203, #139, #138 ) ;
#198 = CONICAL_SURFACE ( 'NONE', #142, 12.55857864376268800, 0.7853981633974490600 ) ;
#199 = FACE_OUTER_BOUND ( 'NONE', #102, .T. ) ;
#200 = DIRECTION ( 'NONE',  ( -0.0000000000000000000, 3.061616997868382600E-016, -1.000000000000000000 ) ) ;
#201 = AXIS2_PLACEMENT_3D ( 'NONE', #146, #145, #144 ) ;
#202 = CIRCLE ( 'NONE', #201, 12.55857864376268800 ) ;
#203 = CARTESIAN_POINT ( 'NONE',  ( 0.0000000000000000000, 1.656145671744060700E-015, -1.358578643762692100 ) ) ;
#204 = CIRCLE ( 'NONE', #197, 12.69999999999999800 ) ;
#205 = AXIS2_PLACEMENT_3D ( 'NONE', #212, #200, #196 ) ;
#206 = DIRECTION ( 'NONE',  ( 0.0000000000000000000, -3.061616997868382600E-016, 1.000000000000000000 ) ) ;
#207 = CARTESIAN_POINT ( 'NONE',  ( 0.0000000000000000000, 1.699443474555835200E-015, -1.500000000000001600 ) ) ;
#208 = CYLINDRICAL_SURFACE ( 'NONE', #228, 12.69999999999999900 ) ;
#209 = DIRECTION ( 'NONE',  ( 0.0000000000000000000, -0.7071067811865483500, 0.7071067811865468000 ) ) ;
#210 = VECTOR ( 'NONE', #209, 999.9999999999998900 ) ;
#211 = CARTESIAN_POINT ( 'NONE',  ( 0.0000000000000000000, -12.55857864376268700, -1.500000000000005600 ) ) ;
#212 = CARTESIAN_POINT ( 'NONE',  ( 0.0000000000000000000, -1.649431272718333700E-015, 9.438255012321221200 ) ) ;
#213 = DIRECTION ( 'NONE',  ( 0.0000000000000000000, 1.000000000000000000, 3.073328992872296400E-016 ) ) ;
#214 = DIRECTION ( 'NONE',  ( -0.0000000000000000000, 3.061616997868382600E-016, -1.000000000000000000 ) ) ;
#215 = VECTOR ( 'NONE', #214, 1000.000000000000000 ) ;
#216 = LINE ( 'NONE', #221, #215 ) ;
#217 = CARTESIAN_POINT ( 'NONE',  ( 0.0000000000000000000, 1.699443474555834900E-015, -1.500000000000000000 ) ) ;
#218 = CARTESIAN_POINT ( 'NONE',  ( 1.555301434917138600E-015, -12.70000000000000300, 9.438255012321217700 ) ) ;
#219 = DIRECTION ( 'NONE',  ( 0.0000000000000000000, 1.000000000000000000, 2.514091994169284200E-016 ) ) ;
#220 = LINE ( 'NONE', #211, #210 ) ;
#221 = CARTESIAN_POINT ( 'NONE',  ( 0.0000000000000000000, 12.70000000000000100, -1.499999999999996200 ) ) ;
#222 = CIRCLE ( 'NONE', #205, 12.70000000000000100 ) ;
#223 = DIRECTION ( 'NONE',  ( -0.0000000000000000000, 3.061616997868382600E-016, -1.000000000000000000 ) ) ;
#224 = DIRECTION ( 'NONE',  ( -1.224646799147353200E-016, 1.000000000000000000, 0.0000000000000000000 ) ) ;
#225 = DIRECTION ( 'NONE',  ( 1.000000000000000000, 1.224646799147353200E-016, 3.749399456654643500E-032 ) ) ;
#226 = FACE_OUTER_BOUND ( 'NONE', #47, .T. ) ;
#227 = DIRECTION ( 'NONE',  ( 1.000000000000000000, 0.0000000000000000000, -0.0000000000000000000 ) ) ;
#228 = AXIS2_PLACEMENT_3D ( 'NONE', #217, #223, #213 ) ;
#229 = FACE_OUTER_BOUND ( 'NONE', #77, .T. ) ;
#230 = DIRECTION ( 'NONE',  ( 0.0000000000000000000, 0.7071067811866258400, -0.7071067811864691900 ) ) ;
#231 = VECTOR ( 'NONE', #230, 1000.000000000000100 ) ;
#232 = CARTESIAN_POINT ( 'NONE',  ( 0.0000000000000000000, 12.69999999999999900, 9.438255012321224800 ) ) ;
#233 = LINE ( 'NONE', #232, #231 ) ;
#234 = DIRECTION ( 'NONE',  ( 8.659560562355888100E-017, -0.7071067811866254000, -0.7071067811864696400 ) ) ;
#235 = VECTOR ( 'NONE', #234, 1000.000000000000100 ) ;
#236 = LINE ( 'NONE', #181, #235 ) ;
#237 = AXIS2_PLACEMENT_3D ( 'NONE', #191, #225, #224 ) ;
#238 = DIRECTION ( 'NONE',  ( 0.0000000000000000000, 1.000000000000000000, 2.762611160361479200E-016 ) ) ;
#239 = AXIS2_PLACEMENT_3D ( 'NONE', #190, #179, #238 ) ;
#240 = CARTESIAN_POINT ( 'NONE',  ( 0.0000000000000000000, 1.072509038427183100E-014, 15.30000000000000800 ) ) ;
#241 = DIRECTION ( 'NONE',  ( 0.0000000000000000000, 1.000000000000000000, 2.514091994169284200E-016 ) ) ;
#242 = DIRECTION ( 'NONE',  ( 1.000000000000000000, 0.0000000000000000000, -0.0000000000000000000 ) ) ;
#243 = AXIS2_PLACEMENT_3D ( 'NONE', #129, #242, #241 ) ;
#244 = CARTESIAN_POINT ( 'NONE',  ( 1.537982313792428500E-015, 12.55857864376269000, -1.499999999999997600 ) ) ;
#245 = CARTESIAN_POINT ( 'NONE',  ( 0.0000000000000000000, -12.55857864376268700, -1.500000000000005600 ) ) ;
#246 = DIRECTION ( 'NONE',  ( 0.0000000000000000000, 1.000000000000000000, 2.731847993664262700E-016 ) ) ;
#247 = DIRECTION ( 'NONE',  ( -0.0000000000000000000, 3.061616997868382600E-016, -1.000000000000000000 ) ) ;
#248 = LOCAL_TIME ( 12, 22, 45.00000000000000000, #249 ) ;
#249 = COORDINATED_UNIVERSAL_TIME_OFFSET ( 5, 0, .BEHIND. ) ;
#250 = CC_DESIGN_PERSON_AND_ORGANIZATION_ASSIGNMENT ( #252, #251, ( #264 ) ) ;
#251 = PERSON_AND_ORGANIZATION_ROLE ( 'creator' ) ;
#252 = PERSON_AND_ORGANIZATION ( #173, #271 ) ;
#253 = CC_DESIGN_APPROVAL ( #261, ( #264 ) ) ;
#254 = APPROVAL_DATE_TIME ( #255, #261 ) ;
#255 = DATE_AND_TIME ( #256, #257 ) ;
#256 = CALENDAR_DATE ( 2012, 28, 9 ) ;
#257 = LOCAL_TIME ( 12, 22, 45.00000000000000000, #258 ) ;
#258 = COORDINATED_UNIVERSAL_TIME_OFFSET ( 5, 0, .BEHIND. ) ;
#259 = APPROVAL_PERSON_ORGANIZATION ( #263, #261, #260 ) ;
#260 = APPROVAL_ROLE ( '' ) ;
#261 = APPROVAL ( #262, 'UNSPECIFIED' ) ;
#262 = APPROVAL_STATUS ( 'not_yet_approved' ) ;
#263 = PERSON_AND_ORGANIZATION ( #173, #271 ) ;
#264 = PRODUCT_DEFINITION ( 'UNKNOWN', '', #26, #265 ) ;
#265 = DESIGN_CONTEXT ( 'detailed design', #267, 'design' ) ;
#266 = APPLICATION_PROTOCOL_DEFINITION ( 'international standard', 'config_control_design', 1994, #267 ) ;
#267 = APPLICATION_CONTEXT ( 'configuration controlled 3d designs of mechanical parts and assemblies' ) ;
#268 = CC_DESIGN_PERSON_AND_ORGANIZATION_ASSIGNMENT ( #270, #269, ( #174 ) ) ;
#269 = PERSON_AND_ORGANIZATION_ROLE ( 'design_owner' ) ;
#270 = PERSON_AND_ORGANIZATION ( #173, #271 ) ;
#271 = ORGANIZATION ( 'UNSPECIFIED', 'UNSPECIFIED', '' ) ;
#272 = DIRECTION ( 'NONE',  ( 0.0000000000000000000, 1.000000000000000000, 3.073328992872296400E-016 ) ) ;
#273 = DIRECTION ( 'NONE',  ( -0.0000000000000000000, 3.061616997868382600E-016, -1.000000000000000000 ) ) ;
#274 = CARTESIAN_POINT ( 'NONE',  ( 0.0000000000000000000, 1.699443474555834900E-015, -1.500000000000000000 ) ) ;
#275 = CARTESIAN_POINT ( 'NONE',  ( 0.0000000000000000000, -1.649431272718333700E-015, 9.438255012321221200 ) ) ;
#276 = AXIS2_PLACEMENT_3D ( 'NONE', #147, #178, #177 ) ;
#277 = APPLICATION_CONTEXT ( 'configuration controlled 3d designs of mechanical parts and assemblies' ) ;
#278 = ADVANCED_BREP_SHAPE_REPRESENTATION ( '25024-E0W', ( #59, #276 ), #279 ) ;
#279 =( GEOMETRIC_REPRESENTATION_CONTEXT ( 3 ) GLOBAL_UNCERTAINTY_ASSIGNED_CONTEXT ( ( #280 ) ) GLOBAL_UNIT_ASSIGNED_CONTEXT ( ( #283, #282, #281 ) ) REPRESENTATION_CONTEXT ( 'NONE', 'WORKASPACE' ) );
#280 = UNCERTAINTY_MEASURE_WITH_UNIT (LENGTH_MEASURE( 1.000000000000000100E-005 ), #283, 'distance_accuracy_value', 'NONE');
#281 =( NAMED_UNIT ( * ) SI_UNIT ( $, .STERADIAN. ) SOLID_ANGLE_UNIT ( ) );
#282 =( NAMED_UNIT ( * ) PLANE_ANGLE_UNIT ( ) SI_UNIT ( $, .RADIAN. ) );
#283 =( LENGTH_UNIT ( ) NAMED_UNIT ( * ) SI_UNIT ( .MILLI., .METRE. ) );
#284 = DIRECTION ( 'NONE',  ( 0.0000000000000000000, 1.000000000000000000, 3.061616997868382600E-016 ) ) ;
#285 = DIRECTION ( 'NONE',  ( -0.0000000000000000000, 3.061616997868382600E-016, -1.000000000000000000 ) ) ;
#286 = CARTESIAN_POINT ( 'NONE',  ( 0.0000000000000000000, 1.699443474555835000E-015, -1.500000000000000700 ) ) ;
#287 = FACE_OUTER_BOUND ( 'NONE', #31, .T. ) ;
#288 = AXIS2_PLACEMENT_3D ( 'NONE', #274, #273, #272 ) ;
#289 = CARTESIAN_POINT ( 'NONE',  ( 0.0000000000000000000, 1.699443474555835200E-015, -1.500000000000001600 ) ) ;
#290 = DIRECTION ( 'NONE',  ( 8.659560562354940300E-017, 0.7071067811865479100, 0.7071067811865472400 ) ) ;
#291 = VECTOR ( 'NONE', #290, 999.9999999999998900 ) ;
#292 = LINE ( 'NONE', #244, #291 ) ;
#293 = AXIS2_PLACEMENT_3D ( 'NONE', #289, #170, #169 ) ;
#294 = DIRECTION ( 'NONE',  ( 0.0000000000000000000, 0.0000000000000000000, 1.000000000000000000 ) ) ;
#295 = DIRECTION ( 'NONE',  ( -1.000000000000000000, 0.0000000000000000000, 0.0000000000000000000 ) ) ;
#296 = AXIS2_PLACEMENT_3D ( 'NONE', #240, #295, #294 ) ;
#297 = AXIS2_PLACEMENT_3D ( 'NONE', #160, #159, #158 ) ;
#298 = CIRCLE ( 'NONE', #296, 13.80000000000000600 ) ;
#299 = SHAPE_DEFINITION_REPRESENTATION ( #300, #278 ) ;
#300 = PRODUCT_DEFINITION_SHAPE ( 'NONE', 'NONE',  #264 ) ;
#301 = PRODUCT_RELATED_PRODUCT_CATEGORY ( 'detail', '', ( #174 ) ) ;
ENDSEC;
END-ISO-10303-21;
