ISO-10303-21;
HEADER;
FILE_DESCRIPTION (( 'STEP AP203' ),
    '1' );
FILE_NAME ('Web Model 64407.STEP',
    '2017-01-31T19:06:33',
    ( '' ),
    ( '' ),
    'SwSTEP 2.0',
    'SolidWorks 2016',
    '' );
FILE_SCHEMA (( 'CONFIG_CONTROL_DESIGN' ));
ENDSEC;

DATA;
#1 = LINE ( 'NONE', #151, #211 ) ;
#2 = PERSON_AND_ORGANIZATION_ROLE ( 'creator' ) ;
#3 = APPROVAL ( #93, 'UNSPECIFIED' ) ;
#4 = PRODUCT_DEFINITION_FORMATION_WITH_SPECIFIED_SOURCE ( 'ANY', '', #226, .NOT_KNOWN. ) ;
#5 = CARTESIAN_POINT ( 'NONE',  ( -42.49999999999999300, -30.00000000000000000, -1.000000000000000000 ) ) ;
#6 = CARTESIAN_POINT ( 'NONE',  ( -42.49999999999999300, -30.00000000000000000, 0.0000000000000000000 ) ) ;
#7 = PLANE ( 'NONE',  #237 ) ;
#8 =( GEOMETRIC_REPRESENTATION_CONTEXT ( 3 ) GLOBAL_UNCERTAINTY_ASSIGNED_CONTEXT ( ( #137 ) ) GLOBAL_UNIT_ASSIGNED_CONTEXT ( ( #55, #146, #35 ) ) REPRESENTATION_CONTEXT ( 'NONE', 'WORKASPACE' ) );
#9 = FACE_OUTER_BOUND ( 'NONE', #18, .T. ) ;
#10 = EDGE_CURVE ( 'NONE', #156, #48, #90, .T. ) ;
#11 = LINE ( 'NONE', #199, #28 ) ;
#12 = ORIENTED_EDGE ( 'NONE', *, *, #75, .F. ) ;
#13 = CC_DESIGN_APPROVAL ( #3, ( #49 ) ) ;
#14 = CARTESIAN_POINT ( 'NONE',  ( 42.49999999999999300, 30.00000000000000000, -1.000000000000000000 ) ) ;
#15 = DIRECTION ( 'NONE',  ( 0.0000000000000000000, 0.0000000000000000000, 1.000000000000000000 ) ) ;
#16 = ORIENTED_EDGE ( 'NONE', *, *, #23, .T. ) ;
#17 = APPLICATION_CONTEXT ( 'configuration controlled 3d designs of mechanical parts and assemblies' ) ;
#18 = EDGE_LOOP ( 'NONE', ( #82, #26, #66, #46 ) ) ;
#19 = VECTOR ( 'NONE', #114, 1000.000000000000000 ) ;
#20 = VERTEX_POINT ( 'NONE', #134 ) ;
#21 = CARTESIAN_POINT ( 'NONE',  ( -42.50000000000000700, 30.00000000000000000, -1.000000000000000000 ) ) ;
#22 = ORIENTED_EDGE ( 'NONE', *, *, #219, .F. ) ;
#23 = EDGE_CURVE ( 'NONE', #152, #20, #110, .T. ) ;
#24 = DIRECTION ( 'NONE',  ( -1.000000000000000000, -0.0000000000000000000, -0.0000000000000000000 ) ) ;
#25 = DIRECTION ( 'NONE',  ( 2.312964634635743400E-016, -1.000000000000000000, 0.0000000000000000000 ) ) ;
#26 = ORIENTED_EDGE ( 'NONE', *, *, #47, .F. ) ;
#27 = PLANE ( 'NONE',  #153 ) ;
#28 = VECTOR ( 'NONE', #88, 1000.000000000000000 ) ;
#29 = CARTESIAN_POINT ( 'NONE',  ( 42.49999999999999300, 30.00000000000000000, 0.0000000000000000000 ) ) ;
#30 = DIRECTION ( 'NONE',  ( 2.312964634635743000E-016, -1.000000000000000000, 0.0000000000000000000 ) ) ;
#31 = CC_DESIGN_PERSON_AND_ORGANIZATION_ASSIGNMENT ( #91, #124, ( #4 ) ) ;
#32 = ORIENTED_EDGE ( 'NONE', *, *, #10, .F. ) ;
#33 = VECTOR ( 'NONE', #67, 1000.000000000000000 ) ;
#34 = DIRECTION ( 'NONE',  ( 1.000000000000000000, 0.0000000000000000000, 0.0000000000000000000 ) ) ;
#35 =( NAMED_UNIT ( * ) SI_UNIT ( $, .STERADIAN. ) SOLID_ANGLE_UNIT ( ) );
#36 = ADVANCED_FACE ( 'NONE', ( #9 ), #155, .T. ) ;
#37 = ORIENTED_EDGE ( 'NONE', *, *, #10, .T. ) ;
#38 = ORGANIZATION ( 'UNSPECIFIED', 'UNSPECIFIED', '' ) ;
#39 = LINE ( 'NONE', #84, #33 ) ;
#40 = COORDINATED_UNIVERSAL_TIME_OFFSET ( 5, 0, .BEHIND. ) ;
#41 = CC_DESIGN_APPROVAL ( #231, ( #105 ) ) ;
#42 = CARTESIAN_POINT ( 'NONE',  ( -42.50000000000000700, 30.00000000000000000, -1.000000000000000000 ) ) ;
#43 = DIRECTION ( 'NONE',  ( -2.312964634635743000E-016, 1.000000000000000000, -0.0000000000000000000 ) ) ;
#44 = PERSON_AND_ORGANIZATION ( #78, #38 ) ;
#45 = CARTESIAN_POINT ( 'NONE',  ( -42.49999999999999300, -30.00000000000000000, -1.000000000000000000 ) ) ;
#46 = ORIENTED_EDGE ( 'NONE', *, *, #235, .T. ) ;
#47 = EDGE_CURVE ( 'NONE', #236, #48, #39, .T. ) ;
#48 = VERTEX_POINT ( 'NONE', #68 ) ;
#49 = SECURITY_CLASSIFICATION ( '', '', #144 ) ;
#50 = SHAPE_DEFINITION_REPRESENTATION ( #69, #216 ) ;
#51 = DIRECTION ( 'NONE',  ( -2.312964634635743000E-016, 1.000000000000000000, -0.0000000000000000000 ) ) ;
#52 = DIRECTION ( 'NONE',  ( 0.0000000000000000000, 1.000000000000000000, 0.0000000000000000000 ) ) ;
#53 = DIRECTION ( 'NONE',  ( -2.312964634635743400E-016, 1.000000000000000000, 0.0000000000000000000 ) ) ;
#54 = PERSON_AND_ORGANIZATION ( #78, #38 ) ;
#55 =( LENGTH_UNIT ( ) NAMED_UNIT ( * ) SI_UNIT ( .MILLI., .METRE. ) );
#56 = AXIS2_PLACEMENT_3D ( 'NONE', #217, #202, #34 ) ;
#57 = APPROVAL_PERSON_ORGANIZATION ( #61, #142, #208 ) ;
#58 = EDGE_CURVE ( 'NONE', #118, #109, #220, .T. ) ;
#59 = COORDINATED_UNIVERSAL_TIME_OFFSET ( 5, 0, .BEHIND. ) ;
#60 = PLANE ( 'NONE',  #192 ) ;
#61 = PERSON_AND_ORGANIZATION ( #78, #38 ) ;
#62 = PERSON_AND_ORGANIZATION ( #78, #38 ) ;
#63 = CARTESIAN_POINT ( 'NONE',  ( -42.50000000000000700, 30.00000000000000000, 0.0000000000000000000 ) ) ;
#64 = APPROVAL_DATE_TIME ( #201, #3 ) ;
#65 = ORIENTED_EDGE ( 'NONE', *, *, #219, .T. ) ;
#66 = ORIENTED_EDGE ( 'NONE', *, *, #75, .T. ) ;
#67 = DIRECTION ( 'NONE',  ( 0.0000000000000000000, 0.0000000000000000000, 1.000000000000000000 ) ) ;
#68 = CARTESIAN_POINT ( 'NONE',  ( 42.49999999999999300, 30.00000000000000000, 0.0000000000000000000 ) ) ;
#69 = PRODUCT_DEFINITION_SHAPE ( 'NONE', 'NONE',  #105 ) ;
#70 = ORIENTED_EDGE ( 'NONE', *, *, #81, .F. ) ;
#71 = DIRECTION ( 'NONE',  ( 1.000000000000000000, 4.081702296416016400E-017, 0.0000000000000000000 ) ) ;
#72 = VECTOR ( 'NONE', #215, 1000.000000000000000 ) ;
#73 = EDGE_LOOP ( 'NONE', ( #16, #65, #37, #162 ) ) ;
#74 = APPLICATION_PROTOCOL_DEFINITION ( 'international standard', 'config_control_design', 1994, #17 ) ;
#75 = EDGE_CURVE ( 'NONE', #236, #118, #169, .T. ) ;
#76 = APPROVAL_ROLE ( '' ) ;
#77 = ADVANCED_FACE ( 'NONE', ( #176 ), #27, .F. ) ;
#78 = PERSON ( 'UNSPECIFIED', 'UNSPECIFIED', 'UNSPECIFIED', ('UNSPECIFIED'), ('UNSPECIFIED'), ('UNSPECIFIED') ) ;
#79 = LINE ( 'NONE', #5, #119 ) ;
#80 = CARTESIAN_POINT ( 'NONE',  ( -42.49999999999999300, -30.00000000000000000, -1.000000000000000000 ) ) ;
#81 = EDGE_CURVE ( 'NONE', #170, #156, #94, .T. ) ;
#82 = ORIENTED_EDGE ( 'NONE', *, *, #145, .F. ) ;
#83 = DATE_AND_TIME ( #234, #221 ) ;
#84 = CARTESIAN_POINT ( 'NONE',  ( 42.49999999999999300, 30.00000000000000000, -1.000000000000000000 ) ) ;
#85 = CARTESIAN_POINT ( 'NONE',  ( -42.50000000000000700, 30.00000000000000000, -1.000000000000000000 ) ) ;
#86 = CARTESIAN_POINT ( 'NONE',  ( 42.49999999999999300, 30.00000000000000000, -1.000000000000000000 ) ) ;
#87 = EDGE_LOOP ( 'NONE', ( #230, #121, #225, #136 ) ) ;
#88 = DIRECTION ( 'NONE',  ( 1.000000000000000000, 4.081702296416016400E-017, 0.0000000000000000000 ) ) ;
#89 = CC_DESIGN_PERSON_AND_ORGANIZATION_ASSIGNMENT ( #44, #141, ( #49 ) ) ;
#90 = LINE ( 'NONE', #29, #130 ) ;
#91 = PERSON_AND_ORGANIZATION ( #78, #38 ) ;
#92 = DATE_TIME_ROLE ( 'classification_date' ) ;
#93 = APPROVAL_STATUS ( 'not_yet_approved' ) ;
#94 = LINE ( 'NONE', #98, #97 ) ;
#95 = APPLICATION_PROTOCOL_DEFINITION ( 'international standard', 'config_control_design', 1994, #185 ) ;
#96 = VECTOR ( 'NONE', #15, 1000.000000000000000 ) ;
#97 = VECTOR ( 'NONE', #99, 1000.000000000000000 ) ;
#98 = CARTESIAN_POINT ( 'NONE',  ( 42.50000000000000700, -29.99999999999999600, -1.000000000000000000 ) ) ;
#99 = DIRECTION ( 'NONE',  ( 0.0000000000000000000, 0.0000000000000000000, 1.000000000000000000 ) ) ;
#100 = ORIENTED_EDGE ( 'NONE', *, *, #173, .F. ) ;
#101 = CC_DESIGN_DATE_AND_TIME_ASSIGNMENT ( #135, #92, ( #49 ) ) ;
#102 = APPROVAL_DATE_TIME ( #83, #142 ) ;
#103 = DIRECTION ( 'NONE',  ( 2.312964634635743000E-016, -1.000000000000000000, 0.0000000000000000000 ) ) ;
#104 = LOCAL_TIME ( 14, 6, 33.00000000000000000, #207 ) ;
#105 = PRODUCT_DEFINITION ( 'UNKNOWN', '', #4, #157 ) ;
#106 = PLANE ( 'NONE',  #198 ) ;
#107 = APPROVAL_STATUS ( 'not_yet_approved' ) ;
#108 = PERSON_AND_ORGANIZATION ( #78, #38 ) ;
#109 = VERTEX_POINT ( 'NONE', #80 ) ;
#110 = LINE ( 'NONE', #179, #163 ) ;
#111 = DIRECTION ( 'NONE',  ( -0.0000000000000000000, 0.0000000000000000000, 1.000000000000000000 ) ) ;
#112 = ORIENTED_EDGE ( 'NONE', *, *, #159, .T. ) ;
#113 = DIRECTION ( 'NONE',  ( 1.000000000000000000, 0.0000000000000000000, 0.0000000000000000000 ) ) ;
#114 = DIRECTION ( 'NONE',  ( 1.000000000000000000, 4.081702296416016400E-017, 0.0000000000000000000 ) ) ;
#115 = AXIS2_PLACEMENT_3D ( 'NONE', #86, #139, #53 ) ;
#116 = ORIENTED_EDGE ( 'NONE', *, *, #47, .T. ) ;
#117 = CALENDAR_DATE ( 2017, 31, 1 ) ;
#118 = VERTEX_POINT ( 'NONE', #42 ) ;
#119 = VECTOR ( 'NONE', #143, 1000.000000000000000 ) ;
#120 = PLANE ( 'NONE',  #115 ) ;
#121 = ORIENTED_EDGE ( 'NONE', *, *, #235, .F. ) ;
#122 = LOCAL_TIME ( 14, 6, 33.00000000000000000, #59 ) ;
#123 = LINE ( 'NONE', #196, #96 ) ;
#124 = PERSON_AND_ORGANIZATION_ROLE ( 'design_supplier' ) ;
#125 = APPROVAL_PERSON_ORGANIZATION ( #62, #231, #76 ) ;
#126 = MECHANICAL_CONTEXT ( 'NONE', #17, 'mechanical' ) ;
#127 = PERSON_AND_ORGANIZATION_ROLE ( 'design_owner' ) ;
#128 = ADVANCED_FACE ( 'NONE', ( #223 ), #60, .T. ) ;
#129 = EDGE_CURVE ( 'NONE', #109, #170, #233, .T. ) ;
#130 = VECTOR ( 'NONE', #51, 1000.000000000000000 ) ;
#131 = DIRECTION ( 'NONE',  ( 1.000000000000000000, 0.0000000000000000000, 0.0000000000000000000 ) ) ;
#132 = ORIENTED_EDGE ( 'NONE', *, *, #129, .T. ) ;
#133 = CARTESIAN_POINT ( 'NONE',  ( -42.50000000000000700, 30.00000000000000000, -1.000000000000000000 ) ) ;
#134 = CARTESIAN_POINT ( 'NONE',  ( -42.49999999999999300, -30.00000000000000000, 0.0000000000000000000 ) ) ;
#135 = DATE_AND_TIME ( #194, #122 ) ;
#136 = ORIENTED_EDGE ( 'NONE', *, *, #173, .T. ) ;
#137 = UNCERTAINTY_MEASURE_WITH_UNIT (LENGTH_MEASURE( 1.000000000000000100E-005 ), #55, 'distance_accuracy_value', 'NONE');
#138 = CARTESIAN_POINT ( 'NONE',  ( -42.49999999999999300, -30.00000000000000000, -1.000000000000000000 ) ) ;
#139 = DIRECTION ( 'NONE',  ( 1.000000000000000000, 2.312964634635743400E-016, -0.0000000000000000000 ) ) ;
#140 = LOCAL_TIME ( 14, 6, 33.00000000000000000, #206 ) ;
#141 = PERSON_AND_ORGANIZATION_ROLE ( 'classification_officer' ) ;
#142 = APPROVAL ( #165, 'UNSPECIFIED' ) ;
#143 = DIRECTION ( 'NONE',  ( 0.0000000000000000000, 0.0000000000000000000, 1.000000000000000000 ) ) ;
#144 = SECURITY_CLASSIFICATION_LEVEL ( 'unclassified' ) ;
#145 = EDGE_CURVE ( 'NONE', #48, #152, #227, .T. ) ;
#146 =( NAMED_UNIT ( * ) PLANE_ANGLE_UNIT ( ) SI_UNIT ( $, .RADIAN. ) );
#147 = PERSON_AND_ORGANIZATION ( #78, #38 ) ;
#148 = DATE_TIME_ROLE ( 'creation_date' ) ;
#149 = PRODUCT_RELATED_PRODUCT_CATEGORY ( 'detail', '', ( #226 ) ) ;
#150 = VECTOR ( 'NONE', #103, 1000.000000000000000 ) ;
#151 = CARTESIAN_POINT ( 'NONE',  ( 42.49999999999999300, 30.00000000000000000, -1.000000000000000000 ) ) ;
#152 = VERTEX_POINT ( 'NONE', #171 ) ;
#153 = AXIS2_PLACEMENT_3D ( 'NONE', #232, #111, #113 ) ;
#154 = EDGE_LOOP ( 'NONE', ( #189, #12, #210, #229 ) ) ;
#155 = PLANE ( 'NONE',  #182 ) ;
#156 = VERTEX_POINT ( 'NONE', #228 ) ;
#157 = DESIGN_CONTEXT ( 'detailed design', #185, 'design' ) ;
#158 = CARTESIAN_POINT ( 'NONE',  ( -42.50000000000000700, 30.00000000000000000, -1.000000000000000000 ) ) ;
#159 = EDGE_CURVE ( 'NONE', #170, #236, #1, .T. ) ;
#160 = APPROVAL_DATE_TIME ( #212, #231 ) ;
#161 = CC_DESIGN_PERSON_AND_ORGANIZATION_ASSIGNMENT ( #54, #204, ( #105 ) ) ;
#162 = ORIENTED_EDGE ( 'NONE', *, *, #145, .T. ) ;
#163 = VECTOR ( 'NONE', #30, 1000.000000000000000 ) ;
#164 = FACE_OUTER_BOUND ( 'NONE', #180, .T. ) ;
#165 = APPROVAL_STATUS ( 'not_yet_approved' ) ;
#166 = CC_DESIGN_SECURITY_CLASSIFICATION ( #49, ( #4 ) ) ;
#167 = ADVANCED_FACE ( 'NONE', ( #178 ), #7, .T. ) ;
#168 = CC_DESIGN_PERSON_AND_ORGANIZATION_ASSIGNMENT ( #108, #2, ( #4 ) ) ;
#169 = LINE ( 'NONE', #85, #72 ) ;
#170 = VERTEX_POINT ( 'NONE', #172 ) ;
#171 = CARTESIAN_POINT ( 'NONE',  ( -42.50000000000000700, 30.00000000000000000, 0.0000000000000000000 ) ) ;
#172 = CARTESIAN_POINT ( 'NONE',  ( 42.50000000000000700, -29.99999999999999600, -1.000000000000000000 ) ) ;
#173 = EDGE_CURVE ( 'NONE', #109, #20, #79, .T. ) ;
#174 = CC_DESIGN_DATE_AND_TIME_ASSIGNMENT ( #203, #148, ( #105 ) ) ;
#175 = ORIENTED_EDGE ( 'NONE', *, *, #81, .T. ) ;
#176 = FACE_OUTER_BOUND ( 'NONE', #154, .T. ) ;
#177 = FACE_OUTER_BOUND ( 'NONE', #214, .T. ) ;
#178 = FACE_OUTER_BOUND ( 'NONE', #87, .T. ) ;
#179 = CARTESIAN_POINT ( 'NONE',  ( -42.50000000000000700, 30.00000000000000000, 0.0000000000000000000 ) ) ;
#180 = EDGE_LOOP ( 'NONE', ( #32, #70, #112, #116 ) ) ;
#181 = PERSON_AND_ORGANIZATION ( #78, #38 ) ;
#182 = AXIS2_PLACEMENT_3D ( 'NONE', #133, #52, #193 ) ;
#183 = VECTOR ( 'NONE', #24, 1000.000000000000000 ) ;
#184 = ADVANCED_FACE ( 'NONE', ( #177 ), #106, .T. ) ;
#185 = APPLICATION_CONTEXT ( 'configuration controlled 3d designs of mechanical parts and assemblies' ) ;
#186 = CALENDAR_DATE ( 2017, 31, 1 ) ;
#187 = COORDINATED_UNIVERSAL_TIME_OFFSET ( 5, 0, .BEHIND. ) ;
#188 = DIRECTION ( 'NONE',  ( -1.000000000000000000, -2.312964634635743400E-016, 0.0000000000000000000 ) ) ;
#189 = ORIENTED_EDGE ( 'NONE', *, *, #58, .F. ) ;
#190 = DIRECTION ( 'NONE',  ( -0.0000000000000000000, 0.0000000000000000000, 1.000000000000000000 ) ) ;
#191 = APPROVAL_PERSON_ORGANIZATION ( #147, #3, #222 ) ;
#192 = AXIS2_PLACEMENT_3D ( 'NONE', #6, #190, #131 ) ;
#193 = DIRECTION ( 'NONE',  ( 0.0000000000000000000, -0.0000000000000000000, 1.000000000000000000 ) ) ;
#194 = CALENDAR_DATE ( 2017, 31, 1 ) ;
#195 = CALENDAR_DATE ( 2017, 31, 1 ) ;
#196 = CARTESIAN_POINT ( 'NONE',  ( -42.50000000000000700, 30.00000000000000000, -1.000000000000000000 ) ) ;
#197 = DIRECTION ( 'NONE',  ( 4.081702296416016400E-017, -1.000000000000000000, 0.0000000000000000000 ) ) ;
#198 = AXIS2_PLACEMENT_3D ( 'NONE', #138, #197, #71 ) ;
#199 = CARTESIAN_POINT ( 'NONE',  ( -42.49999999999999300, -30.00000000000000000, 0.0000000000000000000 ) ) ;
#200 = LOCAL_TIME ( 14, 6, 33.00000000000000000, #40 ) ;
#201 = DATE_AND_TIME ( #117, #200 ) ;
#202 = DIRECTION ( 'NONE',  ( 0.0000000000000000000, 0.0000000000000000000, 1.000000000000000000 ) ) ;
#203 = DATE_AND_TIME ( #186, #140 ) ;
#204 = PERSON_AND_ORGANIZATION_ROLE ( 'creator' ) ;
#205 = CLOSED_SHELL ( 'NONE', ( #167, #36, #209, #184, #77, #128 ) ) ;
#206 = COORDINATED_UNIVERSAL_TIME_OFFSET ( 5, 0, .BEHIND. ) ;
#207 = COORDINATED_UNIVERSAL_TIME_OFFSET ( 5, 0, .BEHIND. ) ;
#208 = APPROVAL_ROLE ( '' ) ;
#209 = ADVANCED_FACE ( 'NONE', ( #164 ), #120, .T. ) ;
#210 = ORIENTED_EDGE ( 'NONE', *, *, #159, .F. ) ;
#211 = VECTOR ( 'NONE', #43, 1000.000000000000000 ) ;
#212 = DATE_AND_TIME ( #195, #104 ) ;
#213 = CC_DESIGN_PERSON_AND_ORGANIZATION_ASSIGNMENT ( #181, #127, ( #226 ) ) ;
#214 = EDGE_LOOP ( 'NONE', ( #22, #100, #132, #175 ) ) ;
#215 = DIRECTION ( 'NONE',  ( -1.000000000000000000, -0.0000000000000000000, -0.0000000000000000000 ) ) ;
#216 = ADVANCED_BREP_SHAPE_REPRESENTATION ( 'Web Model 64407', ( #218, #56 ), #8 ) ;
#217 = CARTESIAN_POINT ( 'NONE',  ( 0.0000000000000000000, 0.0000000000000000000, 0.0000000000000000000 ) ) ;
#218 = MANIFOLD_SOLID_BREP ( 'Extrude1', #205 ) ;
#219 = EDGE_CURVE ( 'NONE', #20, #156, #11, .T. ) ;
#220 = LINE ( 'NONE', #158, #150 ) ;
#221 = LOCAL_TIME ( 14, 6, 33.00000000000000000, #187 ) ;
#222 = APPROVAL_ROLE ( '' ) ;
#223 = FACE_OUTER_BOUND ( 'NONE', #73, .T. ) ;
#224 = CC_DESIGN_APPROVAL ( #142, ( #4 ) ) ;
#225 = ORIENTED_EDGE ( 'NONE', *, *, #58, .T. ) ;
#226 = PRODUCT ( 'Web Model 64407', 'Web Model 64407', '', ( #126 ) ) ;
#227 = LINE ( 'NONE', #63, #183 ) ;
#228 = CARTESIAN_POINT ( 'NONE',  ( 42.50000000000000700, -29.99999999999999600, 0.0000000000000000000 ) ) ;
#229 = ORIENTED_EDGE ( 'NONE', *, *, #129, .F. ) ;
#230 = ORIENTED_EDGE ( 'NONE', *, *, #23, .F. ) ;
#231 = APPROVAL ( #107, 'UNSPECIFIED' ) ;
#232 = CARTESIAN_POINT ( 'NONE',  ( -42.49999999999999300, -30.00000000000000000, -1.000000000000000000 ) ) ;
#233 = LINE ( 'NONE', #45, #19 ) ;
#234 = CALENDAR_DATE ( 2017, 31, 1 ) ;
#235 = EDGE_CURVE ( 'NONE', #118, #152, #123, .T. ) ;
#236 = VERTEX_POINT ( 'NONE', #14 ) ;
#237 = AXIS2_PLACEMENT_3D ( 'NONE', #21, #188, #25 ) ;
ENDSEC;
END-ISO-10303-21;
