ISO-10303-21;
HEADER;
FILE_DESCRIPTION (( 'STEP AP203' ),
    '1' );
FILE_NAME ('Web Model 43368_15994.step',
    '2020-10-21T18:22:13',
    ( '' ),
    ( '' ),
    'SwSTEP 2.0',
    'SolidWorks 2018',
    '' );
FILE_SCHEMA (( 'CONFIG_CONTROL_DESIGN' ));
ENDSEC;

DATA;
#1 = CC_DESIGN_APPROVAL ( #86, ( #63 ) ) ;
#2 = DIRECTION ( 'NONE',  ( 0.0000000000000000000, 0.0000000000000000000, 1.000000000000000000 ) ) ;
#3 = DIRECTION ( 'NONE',  ( 0.0000000000000000000, 0.0000000000000000000, 1.000000000000000000 ) ) ;
#4 = LOCAL_TIME ( 14, 22, 13.00000000000000000, #149 ) ;
#5 = EDGE_CURVE ( 'NONE', #107, #137, #161, .T. ) ;
#6 = DIRECTION ( 'NONE',  ( -0.0000000000000000000, -0.0000000000000000000, -1.000000000000000000 ) ) ;
#7 = FACE_OUTER_BOUND ( 'NONE', #169, .T. ) ;
#8 = COORDINATED_UNIVERSAL_TIME_OFFSET ( 5, 0, .BEHIND. ) ;
#9 = DIRECTION ( 'NONE',  ( 0.0000000000000000000, 0.0000000000000000000, 1.000000000000000000 ) ) ;
#10 = COORDINATED_UNIVERSAL_TIME_OFFSET ( 5, 0, .BEHIND. ) ;
#11 = EDGE_CURVE ( 'NONE', #137, #107, #35, .T. ) ;
#12 =( NAMED_UNIT ( * ) PLANE_ANGLE_UNIT ( ) SI_UNIT ( $, .RADIAN. ) );
#13 = ORIENTED_EDGE ( 'NONE', *, *, #5, .F. ) ;
#14 = LOCAL_TIME ( 14, 22, 13.00000000000000000, #97 ) ;
#15 = PERSON_AND_ORGANIZATION ( #68, #162 ) ;
#16 = AXIS2_PLACEMENT_3D ( 'NONE', #166, #3, #58 ) ;
#17 = APPROVAL_PERSON_ORGANIZATION ( #92, #86, #142 ) ;
#18 = DATE_AND_TIME ( #54, #4 ) ;
#19 = CARTESIAN_POINT ( 'NONE',  ( 0.0000000000000000000, 0.0000000000000000000, 2.000000000000000000 ) ) ;
#20 = CARTESIAN_POINT ( 'NONE',  ( 0.0000000000000000000, 0.0000000000000000000, 2.000000000000000000 ) ) ;
#21 = CC_DESIGN_SECURITY_CLASSIFICATION ( #63, ( #96 ) ) ;
#22 = ORIENTED_EDGE ( 'NONE', *, *, #98, .T. ) ;
#23 = PERSON_AND_ORGANIZATION ( #68, #162 ) ;
#24 = APPROVAL_STATUS ( 'not_yet_approved' ) ;
#25 = DATE_TIME_ROLE ( 'creation_date' ) ;
#26 = SHAPE_DEFINITION_REPRESENTATION ( #40, #158 ) ;
#27 = CARTESIAN_POINT ( 'NONE',  ( 0.0000000000000000000, 0.0000000000000000000, 0.0000000000000000000 ) ) ;
#28 = ADVANCED_FACE ( 'NONE', ( #172 ), #93, .T. ) ;
#29 = CLOSED_SHELL ( 'NONE', ( #160, #84, #28, #88 ) ) ;
#30 = PRODUCT_RELATED_PRODUCT_CATEGORY ( 'detail', '', ( #82 ) ) ;
#31 = MANIFOLD_SOLID_BREP ( 'Boss-Extrude1', #29 ) ;
#32 = ORIENTED_EDGE ( 'NONE', *, *, #101, .F. ) ;
#33 = CARTESIAN_POINT ( 'NONE',  ( -10.00000000000000000, 0.0000000000000000000, 2.000000000000000000 ) ) ;
#34 = DIRECTION ( 'NONE',  ( 1.000000000000000000, 0.0000000000000000000, 0.0000000000000000000 ) ) ;
#35 = CIRCLE ( 'NONE', #144, 10.00000000000000000 ) ;
#36 = DIRECTION ( 'NONE',  ( 0.0000000000000000000, 0.0000000000000000000, 1.000000000000000000 ) ) ;
#37 = APPROVAL_ROLE ( '' ) ;
#38 = CALENDAR_DATE ( 2020, 21, 10 ) ;
#39 = APPLICATION_CONTEXT ( 'configuration controlled 3d designs of mechanical parts and assemblies' ) ;
#40 = PRODUCT_DEFINITION_SHAPE ( 'NONE', 'NONE',  #71 ) ;
#41 = ORIENTED_EDGE ( 'NONE', *, *, #111, .T. ) ;
#42 = CC_DESIGN_PERSON_AND_ORGANIZATION_ASSIGNMENT ( #48, #105, ( #63 ) ) ;
#43 = DATE_AND_TIME ( #66, #14 ) ;
#44 = ORIENTED_EDGE ( 'NONE', *, *, #11, .F. ) ;
#45 =( LENGTH_UNIT ( ) NAMED_UNIT ( * ) SI_UNIT ( .MILLI., .METRE. ) );
#46 = PERSON_AND_ORGANIZATION ( #68, #162 ) ;
#47 = DIRECTION ( 'NONE',  ( -0.0000000000000000000, -0.0000000000000000000, -1.000000000000000000 ) ) ;
#48 = PERSON_AND_ORGANIZATION ( #68, #162 ) ;
#49 = APPROVAL_STATUS ( 'not_yet_approved' ) ;
#50 = CC_DESIGN_DATE_AND_TIME_ASSIGNMENT ( #174, #109, ( #63 ) ) ;
#51 = CALENDAR_DATE ( 2020, 21, 10 ) ;
#52 = VERTEX_POINT ( 'NONE', #117 ) ;
#53 = CC_DESIGN_PERSON_AND_ORGANIZATION_ASSIGNMENT ( #46, #143, ( #71 ) ) ;
#54 = CALENDAR_DATE ( 2020, 21, 10 ) ;
#55 = VERTEX_POINT ( 'NONE', #127 ) ;
#56 = CC_DESIGN_PERSON_AND_ORGANIZATION_ASSIGNMENT ( #23, #81, ( #96 ) ) ;
#57 = CYLINDRICAL_SURFACE ( 'NONE', #164, 10.00000000000000000 ) ;
#58 = DIRECTION ( 'NONE',  ( 1.000000000000000000, 0.0000000000000000000, 0.0000000000000000000 ) ) ;
#59 = APPROVAL ( #67, 'UNSPECIFIED' ) ;
#60 = DATE_AND_TIME ( #150, #87 ) ;
#61 = PERSON_AND_ORGANIZATION_ROLE ( 'design_supplier' ) ;
#62 = UNCERTAINTY_MEASURE_WITH_UNIT (LENGTH_MEASURE( 1.000000000000000082E-05 ), #45, 'distance_accuracy_value', 'NONE');
#63 = SECURITY_CLASSIFICATION ( '', '', #131 ) ;
#64 = APPLICATION_CONTEXT ( 'configuration controlled 3d designs of mechanical parts and assemblies' ) ;
#65 = ORIENTED_EDGE ( 'NONE', *, *, #155, .T. ) ;
#66 = CALENDAR_DATE ( 2020, 21, 10 ) ;
#67 = APPROVAL_STATUS ( 'not_yet_approved' ) ;
#68 = PERSON ( 'UNSPECIFIED', 'UNSPECIFIED', 'UNSPECIFIED', ('UNSPECIFIED'), ('UNSPECIFIED'), ('UNSPECIFIED') ) ;
#69 = CYLINDRICAL_SURFACE ( 'NONE', #123, 10.00000000000000000 ) ;
#70 = APPROVAL_PERSON_ORGANIZATION ( #147, #59, #37 ) ;
#71 = PRODUCT_DEFINITION ( 'UNKNOWN', '', #96, #72 ) ;
#72 = DESIGN_CONTEXT ( 'detailed design', #64, 'design' ) ;
#73 = AXIS2_PLACEMENT_3D ( 'NONE', #152, #36, #139 ) ;
#74 = ORIENTED_EDGE ( 'NONE', *, *, #98, .F. ) ;
#75 = CC_DESIGN_DATE_AND_TIME_ASSIGNMENT ( #76, #25, ( #71 ) ) ;
#76 = DATE_AND_TIME ( #38, #146 ) ;
#77 = DIRECTION ( 'NONE',  ( 1.000000000000000000, 0.0000000000000000000, -0.0000000000000000000 ) ) ;
#78 = DIRECTION ( 'NONE',  ( -1.000000000000000000, 0.0000000000000000000, 0.0000000000000000000 ) ) ;
#79 = DIRECTION ( 'NONE',  ( 0.0000000000000000000, 0.0000000000000000000, 1.000000000000000000 ) ) ;
#80 = CARTESIAN_POINT ( 'NONE',  ( -10.00000000000000000, 0.0000000000000000000, 2.000000000000000000 ) ) ;
#81 = PERSON_AND_ORGANIZATION_ROLE ( 'creator' ) ;
#82 = PRODUCT ( 'Web Model 43368_15994', 'Web Model 43368_15994', '', ( #132 ) ) ;
#83 = AXIS2_PLACEMENT_3D ( 'NONE', #126, #2, #100 ) ;
#84 = ADVANCED_FACE ( 'NONE', ( #7 ), #69, .T. ) ;
#85 = ORIENTED_EDGE ( 'NONE', *, *, #155, .F. ) ;
#86 = APPROVAL ( #49, 'UNSPECIFIED' ) ;
#87 = LOCAL_TIME ( 14, 22, 13.00000000000000000, #8 ) ;
#88 = ADVANCED_FACE ( 'NONE', ( #159 ), #141, .F. ) ;
#89 = APPROVAL_DATE_TIME ( #18, #153 ) ;
#90 = EDGE_LOOP ( 'NONE', ( #74, #32 ) ) ;
#91 = APPROVAL_DATE_TIME ( #43, #59 ) ;
#92 = PERSON_AND_ORGANIZATION ( #68, #162 ) ;
#93 = PLANE ( 'NONE',  #171 ) ;
#94 = AXIS2_PLACEMENT_3D ( 'NONE', #20, #148, #151 ) ;
#95 = DIRECTION ( 'NONE',  ( -0.0000000000000000000, -0.0000000000000000000, -1.000000000000000000 ) ) ;
#96 = PRODUCT_DEFINITION_FORMATION_WITH_SPECIFIED_SOURCE ( 'ANY', '', #82, .NOT_KNOWN. ) ;
#97 = COORDINATED_UNIVERSAL_TIME_OFFSET ( 5, 0, .BEHIND. ) ;
#98 = EDGE_CURVE ( 'NONE', #52, #55, #134, .T. ) ;
#99 = ORIENTED_EDGE ( 'NONE', *, *, #101, .T. ) ;
#100 = DIRECTION ( 'NONE',  ( 1.000000000000000000, 0.0000000000000000000, 0.0000000000000000000 ) ) ;
#101 = EDGE_CURVE ( 'NONE', #55, #52, #135, .T. ) ;
#102 = EDGE_LOOP ( 'NONE', ( #13, #41, #99, #85 ) ) ;
#103 = CARTESIAN_POINT ( 'NONE',  ( 0.0000000000000000000, 0.0000000000000000000, 2.000000000000000000 ) ) ;
#104 = CC_DESIGN_APPROVAL ( #153, ( #71 ) ) ;
#105 = PERSON_AND_ORGANIZATION_ROLE ( 'classification_officer' ) ;
#106 = APPROVAL_ROLE ( '' ) ;
#107 = VERTEX_POINT ( 'NONE', #168 ) ;
#108 = PERSON_AND_ORGANIZATION_ROLE ( 'design_owner' ) ;
#109 = DATE_TIME_ROLE ( 'classification_date' ) ;
#110 = VECTOR ( 'NONE', #6, 1000.000000000000000 ) ;
#111 = EDGE_CURVE ( 'NONE', #107, #55, #145, .T. ) ;
#112 = LINE ( 'NONE', #80, #110 ) ;
#113 = DIRECTION ( 'NONE',  ( -1.000000000000000000, 0.0000000000000000000, 0.0000000000000000000 ) ) ;
#114 = CC_DESIGN_APPROVAL ( #59, ( #96 ) ) ;
#115 = APPROVAL_PERSON_ORGANIZATION ( #125, #153, #106 ) ;
#116 = DIRECTION ( 'NONE',  ( -0.0000000000000000000, -0.0000000000000000000, -1.000000000000000000 ) ) ;
#117 = CARTESIAN_POINT ( 'NONE',  ( -10.00000000000000000, 0.0000000000000000000, 0.0000000000000000000 ) ) ;
#118 = CARTESIAN_POINT ( 'NONE',  ( 0.0000000000000000000, 0.0000000000000000000, 2.000000000000000000 ) ) ;
#119 = ORIENTED_EDGE ( 'NONE', *, *, #11, .T. ) ;
#120 = COORDINATED_UNIVERSAL_TIME_OFFSET ( 5, 0, .BEHIND. ) ;
#121 = DIRECTION ( 'NONE',  ( 1.000000000000000000, 0.0000000000000000000, 0.0000000000000000000 ) ) ;
#122 =( NAMED_UNIT ( * ) SI_UNIT ( $, .STERADIAN. ) SOLID_ANGLE_UNIT ( ) );
#123 = AXIS2_PLACEMENT_3D ( 'NONE', #118, #47, #78 ) ;
#124 = PERSON_AND_ORGANIZATION ( #68, #162 ) ;
#125 = PERSON_AND_ORGANIZATION ( #68, #162 ) ;
#126 = CARTESIAN_POINT ( 'NONE',  ( 0.0000000000000000000, 0.0000000000000000000, 0.0000000000000000000 ) ) ;
#127 = CARTESIAN_POINT ( 'NONE',  ( 10.00000000000000000, 1.224646799147353256E-15, 0.0000000000000000000 ) ) ;
#128 = AXIS2_PLACEMENT_3D ( 'NONE', #27, #9, #121 ) ;
#129 = APPROVAL_DATE_TIME ( #60, #86 ) ;
#130 = ORIENTED_EDGE ( 'NONE', *, *, #111, .F. ) ;
#131 = SECURITY_CLASSIFICATION_LEVEL ( 'unclassified' ) ;
#132 = MECHANICAL_CONTEXT ( 'NONE', #39, 'mechanical' ) ;
#133 = ORIENTED_EDGE ( 'NONE', *, *, #5, .T. ) ;
#134 = CIRCLE ( 'NONE', #16, 10.00000000000000000 ) ;
#135 = CIRCLE ( 'NONE', #83, 10.00000000000000000 ) ;
#136 = CC_DESIGN_PERSON_AND_ORGANIZATION_ASSIGNMENT ( #15, #108, ( #82 ) ) ;
#137 = VERTEX_POINT ( 'NONE', #33 ) ;
#138 = CARTESIAN_POINT ( 'NONE',  ( 0.0000000000000000000, 0.0000000000000000000, 2.000000000000000000 ) ) ;
#139 = DIRECTION ( 'NONE',  ( 1.000000000000000000, 0.0000000000000000000, -0.0000000000000000000 ) ) ;
#140 = CARTESIAN_POINT ( 'NONE',  ( 10.00000000000000000, 1.224646799147353256E-15, 2.000000000000000000 ) ) ;
#141 = PLANE ( 'NONE',  #73 ) ;
#142 = APPROVAL_ROLE ( '' ) ;
#143 = PERSON_AND_ORGANIZATION_ROLE ( 'creator' ) ;
#144 = AXIS2_PLACEMENT_3D ( 'NONE', #138, #165, #34 ) ;
#145 = LINE ( 'NONE', #140, #167 ) ;
#146 = LOCAL_TIME ( 14, 22, 13.00000000000000000, #10 ) ;
#147 = PERSON_AND_ORGANIZATION ( #68, #162 ) ;
#148 = DIRECTION ( 'NONE',  ( 0.0000000000000000000, 0.0000000000000000000, 1.000000000000000000 ) ) ;
#149 = COORDINATED_UNIVERSAL_TIME_OFFSET ( 5, 0, .BEHIND. ) ;
#150 = CALENDAR_DATE ( 2020, 21, 10 ) ;
#151 = DIRECTION ( 'NONE',  ( 1.000000000000000000, 0.0000000000000000000, 0.0000000000000000000 ) ) ;
#152 = CARTESIAN_POINT ( 'NONE',  ( 0.0000000000000000000, 0.0000000000000000000, 0.0000000000000000000 ) ) ;
#153 = APPROVAL ( #24, 'UNSPECIFIED' ) ;
#154 = APPLICATION_PROTOCOL_DEFINITION ( 'international standard', 'config_control_design', 1994, #39 ) ;
#155 = EDGE_CURVE ( 'NONE', #137, #52, #112, .T. ) ;
#156 =( GEOMETRIC_REPRESENTATION_CONTEXT ( 3 ) GLOBAL_UNCERTAINTY_ASSIGNED_CONTEXT ( ( #62 ) ) GLOBAL_UNIT_ASSIGNED_CONTEXT ( ( #45, #12, #122 ) ) REPRESENTATION_CONTEXT ( 'NONE', 'WORKASPACE' ) );
#157 = FACE_OUTER_BOUND ( 'NONE', #102, .T. ) ;
#158 = ADVANCED_BREP_SHAPE_REPRESENTATION ( 'Web Model 43368_15994', ( #31, #128 ), #156 ) ;
#159 = FACE_OUTER_BOUND ( 'NONE', #90, .T. ) ;
#160 = ADVANCED_FACE ( 'NONE', ( #157 ), #57, .T. ) ;
#161 = CIRCLE ( 'NONE', #94, 10.00000000000000000 ) ;
#162 = ORGANIZATION ( 'UNSPECIFIED', 'UNSPECIFIED', '' ) ;
#163 = LOCAL_TIME ( 14, 22, 13.00000000000000000, #120 ) ;
#164 = AXIS2_PLACEMENT_3D ( 'NONE', #19, #95, #113 ) ;
#165 = DIRECTION ( 'NONE',  ( 0.0000000000000000000, 0.0000000000000000000, 1.000000000000000000 ) ) ;
#166 = CARTESIAN_POINT ( 'NONE',  ( 0.0000000000000000000, 0.0000000000000000000, 0.0000000000000000000 ) ) ;
#167 = VECTOR ( 'NONE', #116, 1000.000000000000000 ) ;
#168 = CARTESIAN_POINT ( 'NONE',  ( 10.00000000000000000, 1.224646799147353256E-15, 2.000000000000000000 ) ) ;
#169 = EDGE_LOOP ( 'NONE', ( #130, #44, #65, #22 ) ) ;
#170 = APPLICATION_PROTOCOL_DEFINITION ( 'international standard', 'config_control_design', 1994, #64 ) ;
#171 = AXIS2_PLACEMENT_3D ( 'NONE', #103, #79, #77 ) ;
#172 = FACE_OUTER_BOUND ( 'NONE', #173, .T. ) ;
#173 = EDGE_LOOP ( 'NONE', ( #119, #133 ) ) ;
#174 = DATE_AND_TIME ( #51, #163 ) ;
#175 = CC_DESIGN_PERSON_AND_ORGANIZATION_ASSIGNMENT ( #124, #61, ( #96 ) ) ;
ENDSEC;
END-ISO-10303-21;
