ISO-10303-21;
HEADER;
FILE_DESCRIPTION (( 'STEP AP203' ),
    '1' );
FILE_NAME ('Web Model 18462_18462.step',
    '2021-09-13T18:16:41',
    ( '' ),
    ( '' ),
    'SwSTEP 2.0',
    'SolidWorks 2018',
    '' );
FILE_SCHEMA (( 'CONFIG_CONTROL_DESIGN' ));
ENDSEC;

DATA;
#1 = DATE_AND_TIME ( #116, #149 ) ;
#2 = CIRCLE ( 'NONE', #23, 3.174999999999999822 ) ;
#3 = ORIENTED_EDGE ( 'NONE', *, *, #113, .T. ) ;
#4 = ORIENTED_EDGE ( 'NONE', *, *, #113, .F. ) ;
#5 = CALENDAR_DATE ( 2021, 13, 9 ) ;
#6 = DIRECTION ( 'NONE',  ( -0.000000000000000000, -0.000000000000000000, -1.000000000000000000 ) ) ;
#7 = CC_DESIGN_PERSON_AND_ORGANIZATION_ASSIGNMENT ( #95, #156, ( #162 ) ) ;
#8 = CARTESIAN_POINT ( 'NONE',  ( 3.174999999999999822, 3.888253587292846081E-16, 0.5000000000000000000 ) ) ;
#9 = PERSON_AND_ORGANIZATION ( #111, #125 ) ;
#10 = DATE_AND_TIME ( #160, #88 ) ;
#11 = ADVANCED_FACE ( 'NONE', ( #66 ), #155, .F. ) ;
#12 = CC_DESIGN_DATE_AND_TIME_ASSIGNMENT ( #10, #108, ( #126 ) ) ;
#13 = ADVANCED_FACE ( 'NONE', ( #159 ), #119, .T. ) ;
#14 = ORIENTED_EDGE ( 'NONE', *, *, #137, .T. ) ;
#15 = SHAPE_DEFINITION_REPRESENTATION ( #86, #39 ) ;
#16 = AXIS2_PLACEMENT_3D ( 'NONE', #144, #61, #18 ) ;
#17 = DIRECTION ( 'NONE',  ( 0.000000000000000000, 0.000000000000000000, 1.000000000000000000 ) ) ;
#18 = DIRECTION ( 'NONE',  ( 1.000000000000000000, 0.000000000000000000, 0.000000000000000000 ) ) ;
#19 = PRODUCT_RELATED_PRODUCT_CATEGORY ( 'detail', '', ( #135 ) ) ;
#20 = DATE_TIME_ROLE ( 'creation_date' ) ;
#21 = ORIENTED_EDGE ( 'NONE', *, *, #137, .F. ) ;
#22 = CARTESIAN_POINT ( 'NONE',  ( 3.174999999999999822, 3.888253587292846081E-16, 0.5000000000000000000 ) ) ;
#23 = AXIS2_PLACEMENT_3D ( 'NONE', #30, #17, #130 ) ;
#24 = CALENDAR_DATE ( 2021, 13, 9 ) ;
#25 = COORDINATED_UNIVERSAL_TIME_OFFSET ( 5, 0, .BEHIND. ) ;
#26 = MANIFOLD_SOLID_BREP ( 'Boss-Extrude1', #105 ) ;
#27 = CARTESIAN_POINT ( 'NONE',  ( 0.000000000000000000, 0.000000000000000000, 0.5000000000000000000 ) ) ;
#28 = EDGE_LOOP ( 'NONE', ( #132, #46, #14, #164 ) ) ;
#29 = EDGE_CURVE ( 'NONE', #175, #75, #68, .T. ) ;
#30 = CARTESIAN_POINT ( 'NONE',  ( 0.000000000000000000, 0.000000000000000000, 0.000000000000000000 ) ) ;
#31 = MECHANICAL_CONTEXT ( 'NONE', #50, 'mechanical' ) ;
#32 = ORIENTED_EDGE ( 'NONE', *, *, #29, .F. ) ;
#33 = APPROVAL_ROLE ( '' ) ;
#34 = APPROVAL_STATUS ( 'not_yet_approved' ) ;
#35 = AXIS2_PLACEMENT_3D ( 'NONE', #60, #166, #77 ) ;
#36 = ORIENTED_EDGE ( 'NONE', *, *, #29, .T. ) ;
#37 = APPROVAL_DATE_TIME ( #101, #82 ) ;
#38 = EDGE_LOOP ( 'NONE', ( #140, #4 ) ) ;
#39 = ADVANCED_BREP_SHAPE_REPRESENTATION ( 'Web Model 18462_18462', ( #26, #174 ), #154 ) ;
#40 = PERSON_AND_ORGANIZATION ( #111, #125 ) ;
#41 = APPROVAL_PERSON_ORGANIZATION ( #71, #82, #170 ) ;
#42 = LINE ( 'NONE', #8, #127 ) ;
#43 = CARTESIAN_POINT ( 'NONE',  ( -3.174999999999999822, 0.000000000000000000, 0.5000000000000000000 ) ) ;
#44 = DIRECTION ( 'NONE',  ( 1.000000000000000000, 0.000000000000000000, -0.000000000000000000 ) ) ;
#45 = DESIGN_CONTEXT ( 'detailed design', #49, 'design' ) ;
#46 = ORIENTED_EDGE ( 'NONE', *, *, #133, .F. ) ;
#47 = DIRECTION ( 'NONE',  ( -0.000000000000000000, -0.000000000000000000, -1.000000000000000000 ) ) ;
#48 = CARTESIAN_POINT ( 'NONE',  ( 0.000000000000000000, 0.000000000000000000, 0.5000000000000000000 ) ) ;
#49 = APPLICATION_CONTEXT ( 'configuration controlled 3d designs of mechanical parts and assemblies' ) ;
#50 = APPLICATION_CONTEXT ( 'configuration controlled 3d designs of mechanical parts and assemblies' ) ;
#51 = APPROVAL_STATUS ( 'not_yet_approved' ) ;
#52 = LINE ( 'NONE', #122, #109 ) ;
#53 = LOCAL_TIME ( 14, 16, 41.00000000000000000, #117 ) ;
#54 = CC_DESIGN_PERSON_AND_ORGANIZATION_ASSIGNMENT ( #40, #169, ( #135 ) ) ;
#55 = AXIS2_PLACEMENT_3D ( 'NONE', #165, #59, #106 ) ;
#56 = CC_DESIGN_PERSON_AND_ORGANIZATION_ASSIGNMENT ( #87, #64, ( #74 ) ) ;
#57 = DIRECTION ( 'NONE',  ( -0.000000000000000000, -0.000000000000000000, -1.000000000000000000 ) ) ;
#58 = VERTEX_POINT ( 'NONE', #128 ) ;
#59 = DIRECTION ( 'NONE',  ( 0.000000000000000000, 0.000000000000000000, 1.000000000000000000 ) ) ;
#60 = CARTESIAN_POINT ( 'NONE',  ( 0.000000000000000000, 0.000000000000000000, 0.5000000000000000000 ) ) ;
#61 = DIRECTION ( 'NONE',  ( 0.000000000000000000, 0.000000000000000000, 1.000000000000000000 ) ) ;
#62 = APPROVAL ( #34, 'UNSPECIFIED' ) ;
#63 = LOCAL_TIME ( 14, 16, 41.00000000000000000, #136 ) ;
#64 = PERSON_AND_ORGANIZATION_ROLE ( 'creator' ) ;
#65 =( LENGTH_UNIT ( ) NAMED_UNIT ( * ) SI_UNIT ( .MILLI., .METRE. ) );
#66 = FACE_OUTER_BOUND ( 'NONE', #38, .T. ) ;
#67 = FACE_OUTER_BOUND ( 'NONE', #28, .T. ) ;
#68 = CIRCLE ( 'NONE', #35, 3.174999999999999822 ) ;
#69 = CC_DESIGN_PERSON_AND_ORGANIZATION_ASSIGNMENT ( #81, #134, ( #162 ) ) ;
#70 = VERTEX_POINT ( 'NONE', #90 ) ;
#71 = PERSON_AND_ORGANIZATION ( #111, #125 ) ;
#72 = DIRECTION ( 'NONE',  ( -0.000000000000000000, -0.000000000000000000, -1.000000000000000000 ) ) ;
#73 = DIRECTION ( 'NONE',  ( 1.000000000000000000, 0.000000000000000000, 0.000000000000000000 ) ) ;
#74 = PRODUCT_DEFINITION ( 'UNKNOWN', '', #162, #45 ) ;
#75 = VERTEX_POINT ( 'NONE', #43 ) ;
#76 = DIRECTION ( 'NONE',  ( 0.000000000000000000, 0.000000000000000000, 1.000000000000000000 ) ) ;
#77 = DIRECTION ( 'NONE',  ( 1.000000000000000000, 0.000000000000000000, 0.000000000000000000 ) ) ;
#78 = APPLICATION_PROTOCOL_DEFINITION ( 'international standard', 'config_control_design', 1994, #50 ) ;
#79 = APPROVAL_DATE_TIME ( #1, #121 ) ;
#80 =( NAMED_UNIT ( * ) SI_UNIT ( $, .STERADIAN. ) SOLID_ANGLE_UNIT ( ) );
#81 = PERSON_AND_ORGANIZATION ( #111, #125 ) ;
#82 = APPROVAL ( #51, 'UNSPECIFIED' ) ;
#83 = ADVANCED_FACE ( 'NONE', ( #112 ), #167, .T. ) ;
#84 = APPROVAL_PERSON_ORGANIZATION ( #9, #121, #33 ) ;
#85 = ORIENTED_EDGE ( 'NONE', *, *, #148, .T. ) ;
#86 = PRODUCT_DEFINITION_SHAPE ( 'NONE', 'NONE',  #74 ) ;
#87 = PERSON_AND_ORGANIZATION ( #111, #125 ) ;
#88 = LOCAL_TIME ( 14, 16, 41.00000000000000000, #142 ) ;
#89 = DIRECTION ( 'NONE',  ( -1.000000000000000000, 0.000000000000000000, 0.000000000000000000 ) ) ;
#90 = CARTESIAN_POINT ( 'NONE',  ( 3.174999999999999822, 3.888253587292846081E-16, 0.000000000000000000 ) ) ;
#91 = CARTESIAN_POINT ( 'NONE',  ( 0.000000000000000000, 0.000000000000000000, 0.000000000000000000 ) ) ;
#92 = CC_DESIGN_SECURITY_CLASSIFICATION ( #126, ( #162 ) ) ;
#93 = APPROVAL_STATUS ( 'not_yet_approved' ) ;
#94 = SECURITY_CLASSIFICATION_LEVEL ( 'unclassified' ) ;
#95 = PERSON_AND_ORGANIZATION ( #111, #125 ) ;
#96 = AXIS2_PLACEMENT_3D ( 'NONE', #91, #76, #44 ) ;
#97 = PERSON_AND_ORGANIZATION ( #111, #125 ) ;
#98 = ADVANCED_FACE ( 'NONE', ( #67 ), #161, .T. ) ;
#99 = CC_DESIGN_PERSON_AND_ORGANIZATION_ASSIGNMENT ( #172, #157, ( #126 ) ) ;
#100 = EDGE_LOOP ( 'NONE', ( #139, #36 ) ) ;
#101 = DATE_AND_TIME ( #5, #53 ) ;
#102 = CALENDAR_DATE ( 2021, 13, 9 ) ;
#103 = CC_DESIGN_DATE_AND_TIME_ASSIGNMENT ( #131, #20, ( #74 ) ) ;
#104 = AXIS2_PLACEMENT_3D ( 'NONE', #27, #57, #89 ) ;
#105 = CLOSED_SHELL ( 'NONE', ( #13, #98, #83, #11 ) ) ;
#106 = DIRECTION ( 'NONE',  ( 1.000000000000000000, 0.000000000000000000, -0.000000000000000000 ) ) ;
#107 = CARTESIAN_POINT ( 'NONE',  ( 0.000000000000000000, 0.000000000000000000, 0.000000000000000000 ) ) ;
#108 = DATE_TIME_ROLE ( 'classification_date' ) ;
#109 = VECTOR ( 'NONE', #72, 1000.000000000000000 ) ;
#110 = EDGE_CURVE ( 'NONE', #58, #70, #2, .T. ) ;
#111 = PERSON ( 'UNSPECIFIED', 'UNSPECIFIED', 'UNSPECIFIED', ('UNSPECIFIED'), ('UNSPECIFIED'), ('UNSPECIFIED') ) ;
#112 = FACE_OUTER_BOUND ( 'NONE', #100, .T. ) ;
#113 = EDGE_CURVE ( 'NONE', #70, #58, #141, .T. ) ;
#114 = CIRCLE ( 'NONE', #115, 3.174999999999999822 ) ;
#115 = AXIS2_PLACEMENT_3D ( 'NONE', #118, #152, #73 ) ;
#116 = CALENDAR_DATE ( 2021, 13, 9 ) ;
#117 = COORDINATED_UNIVERSAL_TIME_OFFSET ( 5, 0, .BEHIND. ) ;
#118 = CARTESIAN_POINT ( 'NONE',  ( 0.000000000000000000, 0.000000000000000000, 0.5000000000000000000 ) ) ;
#119 = CYLINDRICAL_SURFACE ( 'NONE', #124, 3.174999999999999822 ) ;
#120 = APPROVAL_DATE_TIME ( #163, #62 ) ;
#121 = APPROVAL ( #93, 'UNSPECIFIED' ) ;
#122 = CARTESIAN_POINT ( 'NONE',  ( -3.174999999999999822, 0.000000000000000000, 0.5000000000000000000 ) ) ;
#123 = LOCAL_TIME ( 14, 16, 41.00000000000000000, #153 ) ;
#124 = AXIS2_PLACEMENT_3D ( 'NONE', #48, #47, #143 ) ;
#125 = ORGANIZATION ( 'UNSPECIFIED', 'UNSPECIFIED', '' ) ;
#126 = SECURITY_CLASSIFICATION ( '', '', #94 ) ;
#127 = VECTOR ( 'NONE', #6, 1000.000000000000000 ) ;
#128 = CARTESIAN_POINT ( 'NONE',  ( -3.174999999999999822, 0.000000000000000000, 0.000000000000000000 ) ) ;
#129 = CC_DESIGN_APPROVAL ( #121, ( #74 ) ) ;
#130 = DIRECTION ( 'NONE',  ( 1.000000000000000000, 0.000000000000000000, 0.000000000000000000 ) ) ;
#131 = DATE_AND_TIME ( #102, #123 ) ;
#132 = ORIENTED_EDGE ( 'NONE', *, *, #148, .F. ) ;
#133 = EDGE_CURVE ( 'NONE', #75, #175, #114, .T. ) ;
#134 = PERSON_AND_ORGANIZATION_ROLE ( 'design_supplier' ) ;
#135 = PRODUCT ( 'Web Model 18462_18462', 'Web Model 18462_18462', '', ( #31 ) ) ;
#136 = COORDINATED_UNIVERSAL_TIME_OFFSET ( 5, 0, .BEHIND. ) ;
#137 = EDGE_CURVE ( 'NONE', #75, #58, #52, .T. ) ;
#138 = UNCERTAINTY_MEASURE_WITH_UNIT (LENGTH_MEASURE( 1.000000000000000082E-05 ), #65, 'distance_accuracy_value', 'NONE');
#139 = ORIENTED_EDGE ( 'NONE', *, *, #133, .T. ) ;
#140 = ORIENTED_EDGE ( 'NONE', *, *, #110, .F. ) ;
#141 = CIRCLE ( 'NONE', #16, 3.174999999999999822 ) ;
#142 = COORDINATED_UNIVERSAL_TIME_OFFSET ( 5, 0, .BEHIND. ) ;
#143 = DIRECTION ( 'NONE',  ( -1.000000000000000000, 0.000000000000000000, 0.000000000000000000 ) ) ;
#144 = CARTESIAN_POINT ( 'NONE',  ( 0.000000000000000000, 0.000000000000000000, 0.000000000000000000 ) ) ;
#145 = APPLICATION_PROTOCOL_DEFINITION ( 'international standard', 'config_control_design', 1994, #49 ) ;
#146 = APPROVAL_ROLE ( '' ) ;
#147 = DIRECTION ( 'NONE',  ( 1.000000000000000000, 0.000000000000000000, 0.000000000000000000 ) ) ;
#148 = EDGE_CURVE ( 'NONE', #175, #70, #42, .T. ) ;
#149 = LOCAL_TIME ( 14, 16, 41.00000000000000000, #25 ) ;
#150 = EDGE_LOOP ( 'NONE', ( #32, #85, #3, #21 ) ) ;
#151 = CC_DESIGN_APPROVAL ( #62, ( #162 ) ) ;
#152 = DIRECTION ( 'NONE',  ( 0.000000000000000000, 0.000000000000000000, 1.000000000000000000 ) ) ;
#153 = COORDINATED_UNIVERSAL_TIME_OFFSET ( 5, 0, .BEHIND. ) ;
#154 =( GEOMETRIC_REPRESENTATION_CONTEXT ( 3 ) GLOBAL_UNCERTAINTY_ASSIGNED_CONTEXT ( ( #138 ) ) GLOBAL_UNIT_ASSIGNED_CONTEXT ( ( #65, #171, #80 ) ) REPRESENTATION_CONTEXT ( 'NONE', 'WORKASPACE' ) );
#155 = PLANE ( 'NONE',  #96 ) ;
#156 = PERSON_AND_ORGANIZATION_ROLE ( 'creator' ) ;
#157 = PERSON_AND_ORGANIZATION_ROLE ( 'classification_officer' ) ;
#158 = CC_DESIGN_APPROVAL ( #82, ( #126 ) ) ;
#159 = FACE_OUTER_BOUND ( 'NONE', #150, .T. ) ;
#160 = CALENDAR_DATE ( 2021, 13, 9 ) ;
#161 = CYLINDRICAL_SURFACE ( 'NONE', #104, 3.174999999999999822 ) ;
#162 = PRODUCT_DEFINITION_FORMATION_WITH_SPECIFIED_SOURCE ( 'ANY', '', #135, .NOT_KNOWN. ) ;
#163 = DATE_AND_TIME ( #24, #63 ) ;
#164 = ORIENTED_EDGE ( 'NONE', *, *, #110, .T. ) ;
#165 = CARTESIAN_POINT ( 'NONE',  ( 0.000000000000000000, 0.000000000000000000, 0.5000000000000000000 ) ) ;
#166 = DIRECTION ( 'NONE',  ( 0.000000000000000000, 0.000000000000000000, 1.000000000000000000 ) ) ;
#167 = PLANE ( 'NONE',  #55 ) ;
#168 = APPROVAL_PERSON_ORGANIZATION ( #97, #62, #146 ) ;
#169 = PERSON_AND_ORGANIZATION_ROLE ( 'design_owner' ) ;
#170 = APPROVAL_ROLE ( '' ) ;
#171 =( NAMED_UNIT ( * ) PLANE_ANGLE_UNIT ( ) SI_UNIT ( $, .RADIAN. ) );
#172 = PERSON_AND_ORGANIZATION ( #111, #125 ) ;
#173 = DIRECTION ( 'NONE',  ( 0.000000000000000000, 0.000000000000000000, 1.000000000000000000 ) ) ;
#174 = AXIS2_PLACEMENT_3D ( 'NONE', #107, #173, #147 ) ;
#175 = VERTEX_POINT ( 'NONE', #22 ) ;
ENDSEC;
END-ISO-10303-21;
