ISO-10303-21;
HEADER;
FILE_DESCRIPTION (( 'STEP AP203' ),
    '1' );
FILE_NAME ('Web Model 15467_19748.step',
    '2022-03-22T19:44:36',
    ( '' ),
    ( '' ),
    'SwSTEP 2.0',
    'SolidWorks 2021',
    '' );
FILE_SCHEMA (( 'CONFIG_CONTROL_DESIGN' ));
ENDSEC;

DATA;
#1 = APPROVAL_STATUS ( 'not_yet_approved' ) ;
#2 = PRODUCT_DEFINITION ( 'UNKNOWN', '', #97, #163 ) ;
#3 = COORDINATED_UNIVERSAL_TIME_OFFSET ( 5, 0, .BEHIND. ) ;
#4 = VECTOR ( 'NONE', #158, 1000.000000000000000 ) ;
#5 = VERTEX_POINT ( 'NONE', #157 ) ;
#6 = EDGE_LOOP ( 'NONE', ( #59, #51 ) ) ;
#7 = VECTOR ( 'NONE', #160, 1000.000000000000000 ) ;
#8 = DIRECTION ( 'NONE',  ( 0.000000000000000000, 0.000000000000000000, 1.000000000000000000 ) ) ;
#9 = PRODUCT ( 'Web Model 15467_19748', 'Web Model 15467_19748', '', ( #92 ) ) ;
#10 = DIRECTION ( 'NONE',  ( 1.000000000000000000, 0.000000000000000000, 0.000000000000000000 ) ) ;
#11 = CARTESIAN_POINT ( 'NONE',  ( 0.000000000000000000, 0.000000000000000000, -0.5000000000000000000 ) ) ;
#12 = PERSON_AND_ORGANIZATION ( #134, #121 ) ;
#13 = PERSON_AND_ORGANIZATION ( #134, #121 ) ;
#14 = CC_DESIGN_PERSON_AND_ORGANIZATION_ASSIGNMENT ( #76, #128, ( #9 ) ) ;
#15 = CLOSED_SHELL ( 'NONE', ( #49, #153, #111, #96 ) ) ;
#16 = APPROVAL_ROLE ( '' ) ;
#17 = CC_DESIGN_DATE_AND_TIME_ASSIGNMENT ( #57, #72, ( #75 ) ) ;
#18 = CALENDAR_DATE ( 2022, 22, 3 ) ;
#19 = EDGE_LOOP ( 'NONE', ( #124, #89, #142, #74 ) ) ;
#20 = FACE_OUTER_BOUND ( 'NONE', #19, .T. ) ;
#21 = CC_DESIGN_PERSON_AND_ORGANIZATION_ASSIGNMENT ( #84, #107, ( #2 ) ) ;
#22 = ORIENTED_EDGE ( 'NONE', *, *, #64, .T. ) ;
#23 = APPROVAL_PERSON_ORGANIZATION ( #154, #66, #69 ) ;
#24 = PLANE ( 'NONE',  #82 ) ;
#25 = AXIS2_PLACEMENT_3D ( 'NONE', #54, #145, #10 ) ;
#26 = CARTESIAN_POINT ( 'NONE',  ( -12.69999999999999929, 0.000000000000000000, 0.5000000000000000000 ) ) ;
#27 = LINE ( 'NONE', #26, #7 ) ;
#28 = APPROVAL_DATE_TIME ( #136, #66 ) ;
#29 = CALENDAR_DATE ( 2022, 22, 3 ) ;
#30 = LOCAL_TIME ( 15, 44, 36.00000000000000000, #45 ) ;
#31 = CC_DESIGN_APPROVAL ( #147, ( #2 ) ) ;
#32 = PERSON_AND_ORGANIZATION ( #134, #121 ) ;
#33 = EDGE_LOOP ( 'NONE', ( #50, #60, #168, #22 ) ) ;
#34 = LINE ( 'NONE', #104, #4 ) ;
#35 = EDGE_CURVE ( 'NONE', #123, #5, #87, .T. ) ;
#36 = PRODUCT_RELATED_PRODUCT_CATEGORY ( 'detail', '', ( #9 ) ) ;
#37 = LOCAL_TIME ( 15, 44, 36.00000000000000000, #95 ) ;
#38 = FACE_OUTER_BOUND ( 'NONE', #33, .T. ) ;
#39 = CARTESIAN_POINT ( 'NONE',  ( 0.000000000000000000, 0.000000000000000000, 0.000000000000000000 ) ) ;
#40 = PLANE ( 'NONE',  #138 ) ;
#41 = CC_DESIGN_PERSON_AND_ORGANIZATION_ASSIGNMENT ( #13, #152, ( #97 ) ) ;
#42 = DIRECTION ( 'NONE',  ( 0.000000000000000000, 0.000000000000000000, 1.000000000000000000 ) ) ;
#43 = APPROVAL_STATUS ( 'not_yet_approved' ) ;
#44 = APPROVAL_ROLE ( '' ) ;
#45 = COORDINATED_UNIVERSAL_TIME_OFFSET ( 5, 0, .BEHIND. ) ;
#46 = DATE_AND_TIME ( #47, #139 ) ;
#47 = CALENDAR_DATE ( 2022, 22, 3 ) ;
#48 = CARTESIAN_POINT ( 'NONE',  ( 0.000000000000000000, 0.000000000000000000, 0.5000000000000000000 ) ) ;
#49 = ADVANCED_FACE ( 'NONE', ( #20 ), #112, .T. ) ;
#50 = ORIENTED_EDGE ( 'NONE', *, *, #52, .F. ) ;
#51 = ORIENTED_EDGE ( 'NONE', *, *, #130, .T. ) ;
#52 = EDGE_CURVE ( 'NONE', #5, #88, #34, .T. ) ;
#53 = FACE_OUTER_BOUND ( 'NONE', #73, .T. ) ;
#54 = CARTESIAN_POINT ( 'NONE',  ( 0.000000000000000000, 0.000000000000000000, -0.5000000000000000000 ) ) ;
#55 = PERSON_AND_ORGANIZATION ( #134, #121 ) ;
#56 = CIRCLE ( 'NONE', #108, 12.69999999999999929 ) ;
#57 = DATE_AND_TIME ( #18, #30 ) ;
#58 = CC_DESIGN_APPROVAL ( #66, ( #75 ) ) ;
#59 = ORIENTED_EDGE ( 'NONE', *, *, #35, .T. ) ;
#60 = ORIENTED_EDGE ( 'NONE', *, *, #35, .F. ) ;
#61 = EDGE_CURVE ( 'NONE', #88, #122, #101, .T. ) ;
#62 = AXIS2_PLACEMENT_3D ( 'NONE', #127, #169, #141 ) ;
#63 = DIRECTION ( 'NONE',  ( 1.000000000000000000, 0.000000000000000000, -0.000000000000000000 ) ) ;
#64 = EDGE_CURVE ( 'NONE', #122, #88, #171, .T. ) ;
#65 = DIRECTION ( 'NONE',  ( 1.000000000000000000, 0.000000000000000000, -0.000000000000000000 ) ) ;
#66 = APPROVAL ( #1, 'UNSPECIFIED' ) ;
#67 = DIRECTION ( 'NONE',  ( 0.000000000000000000, 0.000000000000000000, 1.000000000000000000 ) ) ;
#68 = DIRECTION ( 'NONE',  ( 1.000000000000000000, 0.000000000000000000, 0.000000000000000000 ) ) ;
#69 = APPROVAL_ROLE ( '' ) ;
#70 = CC_DESIGN_DATE_AND_TIME_ASSIGNMENT ( #71, #86, ( #2 ) ) ;
#71 = DATE_AND_TIME ( #161, #167 ) ;
#72 = DATE_TIME_ROLE ( 'classification_date' ) ;
#73 = EDGE_LOOP ( 'NONE', ( #102, #170 ) ) ;
#74 = ORIENTED_EDGE ( 'NONE', *, *, #109, .F. ) ;
#75 = SECURITY_CLASSIFICATION ( '', '', #83 ) ;
#76 = PERSON_AND_ORGANIZATION ( #134, #121 ) ;
#77 = DIRECTION ( 'NONE',  ( 0.000000000000000000, 0.000000000000000000, 1.000000000000000000 ) ) ;
#78 = MANIFOLD_SOLID_BREP ( 'Boss-Extrude1', #15 ) ;
#79 = FACE_OUTER_BOUND ( 'NONE', #6, .T. ) ;
#80 =( NAMED_UNIT ( * ) SI_UNIT ( $, .STERADIAN. ) SOLID_ANGLE_UNIT ( ) );
#81 = PRODUCT_DEFINITION_SHAPE ( 'NONE', 'NONE',  #2 ) ;
#82 = AXIS2_PLACEMENT_3D ( 'NONE', #172, #77, #65 ) ;
#83 = SECURITY_CLASSIFICATION_LEVEL ( 'unclassified' ) ;
#84 = PERSON_AND_ORGANIZATION ( #134, #121 ) ;
#85 = AXIS2_PLACEMENT_3D ( 'NONE', #48, #166, #100 ) ;
#86 = DATE_TIME_ROLE ( 'creation_date' ) ;
#87 = CIRCLE ( 'NONE', #62, 12.69999999999999929 ) ;
#88 = VERTEX_POINT ( 'NONE', #146 ) ;
#89 = ORIENTED_EDGE ( 'NONE', *, *, #52, .T. ) ;
#90 = DIRECTION ( 'NONE',  ( 1.000000000000000000, 0.000000000000000000, 0.000000000000000000 ) ) ;
#91 = DIRECTION ( 'NONE',  ( 0.000000000000000000, 0.000000000000000000, 1.000000000000000000 ) ) ;
#92 = MECHANICAL_CONTEXT ( 'NONE', #151, 'mechanical' ) ;
#93 = APPLICATION_CONTEXT ( 'configuration controlled 3d designs of mechanical parts and assemblies' ) ;
#94 = COORDINATED_UNIVERSAL_TIME_OFFSET ( 5, 0, .BEHIND. ) ;
#95 = COORDINATED_UNIVERSAL_TIME_OFFSET ( 5, 0, .BEHIND. ) ;
#96 = ADVANCED_FACE ( 'NONE', ( #53 ), #40, .F. ) ;
#97 = PRODUCT_DEFINITION_FORMATION_WITH_SPECIFIED_SOURCE ( 'ANY', '', #9, .NOT_KNOWN. ) ;
#98 = CC_DESIGN_PERSON_AND_ORGANIZATION_ASSIGNMENT ( #32, #156, ( #75 ) ) ;
#99 = APPROVAL_DATE_TIME ( #164, #165 ) ;
#100 = DIRECTION ( 'NONE',  ( -1.000000000000000000, 0.000000000000000000, 0.000000000000000000 ) ) ;
#101 = CIRCLE ( 'NONE', #25, 12.69999999999999929 ) ;
#102 = ORIENTED_EDGE ( 'NONE', *, *, #64, .F. ) ;
#103 = LOCAL_TIME ( 15, 44, 36.00000000000000000, #150 ) ;
#104 = CARTESIAN_POINT ( 'NONE',  ( 12.69999999999999929, 1.555301434917138433E-15, 0.5000000000000000000 ) ) ;
#105 = CYLINDRICAL_SURFACE ( 'NONE', #174, 12.69999999999999929 ) ;
#106 =( GEOMETRIC_REPRESENTATION_CONTEXT ( 3 ) GLOBAL_UNCERTAINTY_ASSIGNED_CONTEXT ( ( #144 ) ) GLOBAL_UNIT_ASSIGNED_CONTEXT ( ( #159, #117, #80 ) ) REPRESENTATION_CONTEXT ( 'NONE', 'WORKASPACE' ) );
#107 = PERSON_AND_ORGANIZATION_ROLE ( 'creator' ) ;
#108 = AXIS2_PLACEMENT_3D ( 'NONE', #173, #67, #68 ) ;
#109 = EDGE_CURVE ( 'NONE', #123, #122, #27, .T. ) ;
#110 = APPROVAL_STATUS ( 'not_yet_approved' ) ;
#111 = ADVANCED_FACE ( 'NONE', ( #79 ), #24, .T. ) ;
#112 = CYLINDRICAL_SURFACE ( 'NONE', #85, 12.69999999999999929 ) ;
#113 = APPLICATION_PROTOCOL_DEFINITION ( 'international standard', 'config_control_design', 1994, #93 ) ;
#114 = APPLICATION_PROTOCOL_DEFINITION ( 'international standard', 'config_control_design', 1994, #151 ) ;
#115 = ADVANCED_BREP_SHAPE_REPRESENTATION ( 'Web Model 15467_19748', ( #78, #125 ), #106 ) ;
#116 = CARTESIAN_POINT ( 'NONE',  ( -12.69999999999999929, 0.000000000000000000, 0.5000000000000000000 ) ) ;
#117 =( NAMED_UNIT ( * ) PLANE_ANGLE_UNIT ( ) SI_UNIT ( $, .RADIAN. ) );
#118 = PERSON_AND_ORGANIZATION_ROLE ( 'design_supplier' ) ;
#119 = AXIS2_PLACEMENT_3D ( 'NONE', #175, #42, #149 ) ;
#120 = APPROVAL_DATE_TIME ( #46, #147 ) ;
#121 = ORGANIZATION ( 'UNSPECIFIED', 'UNSPECIFIED', '' ) ;
#122 = VERTEX_POINT ( 'NONE', #132 ) ;
#123 = VERTEX_POINT ( 'NONE', #116 ) ;
#124 = ORIENTED_EDGE ( 'NONE', *, *, #130, .F. ) ;
#125 = AXIS2_PLACEMENT_3D ( 'NONE', #39, #91, #90 ) ;
#126 = CC_DESIGN_APPROVAL ( #165, ( #97 ) ) ;
#127 = CARTESIAN_POINT ( 'NONE',  ( 0.000000000000000000, 0.000000000000000000, 0.5000000000000000000 ) ) ;
#128 = PERSON_AND_ORGANIZATION_ROLE ( 'design_owner' ) ;
#129 = APPROVAL_PERSON_ORGANIZATION ( #12, #165, #16 ) ;
#130 = EDGE_CURVE ( 'NONE', #5, #123, #56, .T. ) ;
#131 = CARTESIAN_POINT ( 'NONE',  ( 0.000000000000000000, 0.000000000000000000, 0.5000000000000000000 ) ) ;
#132 = CARTESIAN_POINT ( 'NONE',  ( -12.69999999999999929, 0.000000000000000000, -0.5000000000000000000 ) ) ;
#133 = APPROVAL_PERSON_ORGANIZATION ( #55, #147, #44 ) ;
#134 = PERSON ( 'UNSPECIFIED', 'UNSPECIFIED', 'UNSPECIFIED', ('UNSPECIFIED'), ('UNSPECIFIED'), ('UNSPECIFIED') ) ;
#135 = DIRECTION ( 'NONE',  ( -1.000000000000000000, 0.000000000000000000, 0.000000000000000000 ) ) ;
#136 = DATE_AND_TIME ( #155, #37 ) ;
#137 = PERSON_AND_ORGANIZATION ( #134, #121 ) ;
#138 = AXIS2_PLACEMENT_3D ( 'NONE', #11, #8, #63 ) ;
#139 = LOCAL_TIME ( 15, 44, 36.00000000000000000, #94 ) ;
#140 = CC_DESIGN_PERSON_AND_ORGANIZATION_ASSIGNMENT ( #137, #118, ( #97 ) ) ;
#141 = DIRECTION ( 'NONE',  ( 1.000000000000000000, 0.000000000000000000, 0.000000000000000000 ) ) ;
#142 = ORIENTED_EDGE ( 'NONE', *, *, #61, .T. ) ;
#143 = CC_DESIGN_SECURITY_CLASSIFICATION ( #75, ( #97 ) ) ;
#144 = UNCERTAINTY_MEASURE_WITH_UNIT (LENGTH_MEASURE( 1.000000000000000082E-05 ), #159, 'distance_accuracy_value', 'NONE');
#145 = DIRECTION ( 'NONE',  ( 0.000000000000000000, 0.000000000000000000, 1.000000000000000000 ) ) ;
#146 = CARTESIAN_POINT ( 'NONE',  ( 12.69999999999999929, 1.555301434917138433E-15, -0.5000000000000000000 ) ) ;
#147 = APPROVAL ( #110, 'UNSPECIFIED' ) ;
#148 = DIRECTION ( 'NONE',  ( -0.000000000000000000, -0.000000000000000000, -1.000000000000000000 ) ) ;
#149 = DIRECTION ( 'NONE',  ( 1.000000000000000000, 0.000000000000000000, 0.000000000000000000 ) ) ;
#150 = COORDINATED_UNIVERSAL_TIME_OFFSET ( 5, 0, .BEHIND. ) ;
#151 = APPLICATION_CONTEXT ( 'configuration controlled 3d designs of mechanical parts and assemblies' ) ;
#152 = PERSON_AND_ORGANIZATION_ROLE ( 'creator' ) ;
#153 = ADVANCED_FACE ( 'NONE', ( #38 ), #105, .T. ) ;
#154 = PERSON_AND_ORGANIZATION ( #134, #121 ) ;
#155 = CALENDAR_DATE ( 2022, 22, 3 ) ;
#156 = PERSON_AND_ORGANIZATION_ROLE ( 'classification_officer' ) ;
#157 = CARTESIAN_POINT ( 'NONE',  ( 12.69999999999999929, 1.555301434917138433E-15, 0.5000000000000000000 ) ) ;
#158 = DIRECTION ( 'NONE',  ( -0.000000000000000000, -0.000000000000000000, -1.000000000000000000 ) ) ;
#159 =( LENGTH_UNIT ( ) NAMED_UNIT ( * ) SI_UNIT ( .MILLI., .METRE. ) );
#160 = DIRECTION ( 'NONE',  ( -0.000000000000000000, -0.000000000000000000, -1.000000000000000000 ) ) ;
#161 = CALENDAR_DATE ( 2022, 22, 3 ) ;
#162 = SHAPE_DEFINITION_REPRESENTATION ( #81, #115 ) ;
#163 = DESIGN_CONTEXT ( 'detailed design', #93, 'design' ) ;
#164 = DATE_AND_TIME ( #29, #103 ) ;
#165 = APPROVAL ( #43, 'UNSPECIFIED' ) ;
#166 = DIRECTION ( 'NONE',  ( -0.000000000000000000, -0.000000000000000000, -1.000000000000000000 ) ) ;
#167 = LOCAL_TIME ( 15, 44, 36.00000000000000000, #3 ) ;
#168 = ORIENTED_EDGE ( 'NONE', *, *, #109, .T. ) ;
#169 = DIRECTION ( 'NONE',  ( 0.000000000000000000, 0.000000000000000000, 1.000000000000000000 ) ) ;
#170 = ORIENTED_EDGE ( 'NONE', *, *, #61, .F. ) ;
#171 = CIRCLE ( 'NONE', #119, 12.69999999999999929 ) ;
#172 = CARTESIAN_POINT ( 'NONE',  ( 0.000000000000000000, 0.000000000000000000, 0.5000000000000000000 ) ) ;
#173 = CARTESIAN_POINT ( 'NONE',  ( 0.000000000000000000, 0.000000000000000000, 0.5000000000000000000 ) ) ;
#174 = AXIS2_PLACEMENT_3D ( 'NONE', #131, #148, #135 ) ;
#175 = CARTESIAN_POINT ( 'NONE',  ( 0.000000000000000000, 0.000000000000000000, -0.5000000000000000000 ) ) ;
ENDSEC;
END-ISO-10303-21;
