ISO-10303-21;
HEADER;
FILE_DESCRIPTION (( 'STEP AP203' ),
    '1' );
FILE_NAME ('Web Model 48201_48201.step',
    '2019-01-07T15:22:49',
    ( '' ),
    ( '' ),
    'SwSTEP 2.0',
    'SolidWorks 2016',
    '' );
FILE_SCHEMA (( 'CONFIG_CONTROL_DESIGN' ));
ENDSEC;

DATA;
#1 = CARTESIAN_POINT ( 'NONE',  ( -12.50000000000000000, -12.50000000000000000, -1.000000000000000000 ) ) ;
#2 = ORIENTED_EDGE ( 'NONE', *, *, #98, .T. ) ;
#3 = AXIS2_PLACEMENT_3D ( 'NONE', #225, #32, #160 ) ;
#4 = LINE ( 'NONE', #48, #112 ) ;
#5 =( NAMED_UNIT ( * ) SI_UNIT ( $, .STERADIAN. ) SOLID_ANGLE_UNIT ( ) );
#6 = EDGE_CURVE ( 'NONE', #204, #8, #63, .T. ) ;
#7 = AXIS2_PLACEMENT_3D ( 'NONE', #30, #108, #222 ) ;
#8 = VERTEX_POINT ( 'NONE', #42 ) ;
#9 = VECTOR ( 'NONE', #141, 1000.000000000000000 ) ;
#10 = ORIENTED_EDGE ( 'NONE', *, *, #166, .T. ) ;
#11 = DIRECTION ( 'NONE',  ( -1.000000000000000000, 0.0000000000000000000, -0.0000000000000000000 ) ) ;
#12 = VERTEX_POINT ( 'NONE', #197 ) ;
#13 = ORIENTED_EDGE ( 'NONE', *, *, #161, .F. ) ;
#14 = CARTESIAN_POINT ( 'NONE',  ( -12.50000000000000000, 12.50000000000000000, -1.000000000000000000 ) ) ;
#15 = APPROVAL_ROLE ( '' ) ;
#16 = FACE_OUTER_BOUND ( 'NONE', #236, .T. ) ;
#17 = LOCAL_TIME ( 10, 22, 49.00000000000000000, #193 ) ;
#18 = ORIENTED_EDGE ( 'NONE', *, *, #55, .T. ) ;
#19 = EDGE_CURVE ( 'NONE', #61, #150, #24, .T. ) ;
#20 = CALENDAR_DATE ( 2019, 7, 1 ) ;
#21 = CC_DESIGN_PERSON_AND_ORGANIZATION_ASSIGNMENT ( #34, #71, ( #110 ) ) ;
#22 = PLANE ( 'NONE',  #126 ) ;
#23 = PLANE ( 'NONE',  #196 ) ;
#24 = LINE ( 'NONE', #85, #171 ) ;
#25 = EDGE_CURVE ( 'NONE', #12, #230, #226, .T. ) ;
#26 = DIRECTION ( 'NONE',  ( -0.0000000000000000000, -0.0000000000000000000, -1.000000000000000000 ) ) ;
#27 = PRODUCT_DEFINITION_SHAPE ( 'NONE', 'NONE',  #35 ) ;
#28 = PERSON_AND_ORGANIZATION ( #132, #136 ) ;
#29 = ORIENTED_EDGE ( 'NONE', *, *, #99, .T. ) ;
#30 = CARTESIAN_POINT ( 'NONE',  ( 0.0000000000000000000, 0.0000000000000000000, 0.0000000000000000000 ) ) ;
#31 =( NAMED_UNIT ( * ) PLANE_ANGLE_UNIT ( ) SI_UNIT ( $, .RADIAN. ) );
#32 = DIRECTION ( 'NONE',  ( 0.0000000000000000000, -1.000000000000000000, 0.0000000000000000000 ) ) ;
#33 = EDGE_LOOP ( 'NONE', ( #148, #192, #10, #36 ) ) ;
#34 = PERSON_AND_ORGANIZATION ( #132, #136 ) ;
#35 = PRODUCT_DEFINITION ( 'UNKNOWN', '', #76, #227 ) ;
#36 = ORIENTED_EDGE ( 'NONE', *, *, #194, .T. ) ;
#37 = VECTOR ( 'NONE', #143, 1000.000000000000000 ) ;
#38 = APPROVAL_DATE_TIME ( #57, #145 ) ;
#39 = ORIENTED_EDGE ( 'NONE', *, *, #40, .T. ) ;
#40 = EDGE_CURVE ( 'NONE', #230, #212, #122, .T. ) ;
#41 = LINE ( 'NONE', #103, #37 ) ;
#42 = CARTESIAN_POINT ( 'NONE',  ( -12.50000000000000000, -12.50000000000000000, -1.000000000000000000 ) ) ;
#43 = DIRECTION ( 'NONE',  ( 0.0000000000000000000, 1.000000000000000000, 0.0000000000000000000 ) ) ;
#44 = VECTOR ( 'NONE', #87, 1000.000000000000000 ) ;
#45 = ORIENTED_EDGE ( 'NONE', *, *, #131, .F. ) ;
#46 = CARTESIAN_POINT ( 'NONE',  ( -12.50000000000000000, -12.50000000000000000, 1.000000000000000000 ) ) ;
#47 = VECTOR ( 'NONE', #138, 1000.000000000000000 ) ;
#48 = CARTESIAN_POINT ( 'NONE',  ( 12.50000000000000000, -12.50000000000000000, 1.000000000000000000 ) ) ;
#49 = CC_DESIGN_APPROVAL ( #205, ( #35 ) ) ;
#50 = LOCAL_TIME ( 10, 22, 49.00000000000000000, #159 ) ;
#51 = CARTESIAN_POINT ( 'NONE',  ( -12.50000000000000000, -12.50000000000000000, 1.000000000000000000 ) ) ;
#52 = ORIENTED_EDGE ( 'NONE', *, *, #194, .F. ) ;
#53 = DIRECTION ( 'NONE',  ( 0.0000000000000000000, 0.0000000000000000000, -1.000000000000000000 ) ) ;
#54 = APPLICATION_CONTEXT ( 'configuration controlled 3d designs of mechanical parts and assemblies' ) ;
#55 = EDGE_CURVE ( 'NONE', #212, #8, #179, .T. ) ;
#57 = DATE_AND_TIME ( #168, #17 ) ;
#56 = CC_DESIGN_APPROVAL ( #145, ( #183 ) ) ;
#58 = DATE_TIME_ROLE ( 'classification_date' ) ;
#59 = DATE_TIME_ROLE ( 'creation_date' ) ;
#60 = PERSON_AND_ORGANIZATION_ROLE ( 'creator' ) ;
#61 = VERTEX_POINT ( 'NONE', #82 ) ;
#62 = LINE ( 'NONE', #121, #44 ) ;
#63 = LINE ( 'NONE', #153, #232 ) ;
#64 = CC_DESIGN_PERSON_AND_ORGANIZATION_ASSIGNMENT ( #199, #60, ( #35 ) ) ;
#65 = ORIENTED_EDGE ( 'NONE', *, *, #99, .F. ) ;
#66 = PLANE ( 'NONE',  #3 ) ;
#67 = PLANE ( 'NONE',  #137 ) ;
#68 = CARTESIAN_POINT ( 'NONE',  ( -12.50000000000000000, 12.50000000000000000, 1.000000000000000000 ) ) ;
#69 = CARTESIAN_POINT ( 'NONE',  ( 12.50000000000000000, 12.50000000000000000, 1.000000000000000000 ) ) ;
#70 = COORDINATED_UNIVERSAL_TIME_OFFSET ( 5, 0, .BEHIND. ) ;
#71 = PERSON_AND_ORGANIZATION_ROLE ( 'design_owner' ) ;
#72 = ORIENTED_EDGE ( 'NONE', *, *, #6, .T. ) ;
#73 = PERSON_AND_ORGANIZATION ( #132, #136 ) ;
#74 = LOCAL_TIME ( 10, 22, 49.00000000000000000, #218 ) ;
#75 = PERSON_AND_ORGANIZATION_ROLE ( 'creator' ) ;
#76 = PRODUCT_DEFINITION_FORMATION_WITH_SPECIFIED_SOURCE ( 'ANY', '', #110, .NOT_KNOWN. ) ;
#77 = LINE ( 'NONE', #51, #185 ) ;
#78 = VECTOR ( 'NONE', #117, 1000.000000000000000 ) ;
#79 = PERSON_AND_ORGANIZATION ( #132, #136 ) ;
#80 = PERSON_AND_ORGANIZATION ( #132, #136 ) ;
#81 = ADVANCED_FACE ( 'NONE', ( #231 ), #22, .F. ) ;
#82 = CARTESIAN_POINT ( 'NONE',  ( 12.50000000000000000, 12.50000000000000000, 1.000000000000000000 ) ) ;
#83 = CALENDAR_DATE ( 2019, 7, 1 ) ;
#84 = ORIENTED_EDGE ( 'NONE', *, *, #40, .F. ) ;
#85 = CARTESIAN_POINT ( 'NONE',  ( -12.50000000000000000, 12.50000000000000000, 1.000000000000000000 ) ) ;
#86 = FACE_OUTER_BOUND ( 'NONE', #233, .T. ) ;
#87 = DIRECTION ( 'NONE',  ( -0.0000000000000000000, -0.0000000000000000000, -1.000000000000000000 ) ) ;
#88 = ORIENTED_EDGE ( 'NONE', *, *, #55, .F. ) ;
#89 = ADVANCED_BREP_SHAPE_REPRESENTATION ( 'Web Model 48201_48201', ( #115, #7 ), #174 ) ;
#90 = CC_DESIGN_PERSON_AND_ORGANIZATION_ASSIGNMENT ( #79, #75, ( #76 ) ) ;
#91 = DIRECTION ( 'NONE',  ( 1.000000000000000000, 0.0000000000000000000, 0.0000000000000000000 ) ) ;
#92 = LINE ( 'NONE', #157, #9 ) ;
#93 = APPLICATION_CONTEXT ( 'configuration controlled 3d designs of mechanical parts and assemblies' ) ;
#94 = ORIENTED_EDGE ( 'NONE', *, *, #176, .F. ) ;
#95 = VECTOR ( 'NONE', #154, 1000.000000000000000 ) ;
#96 = ORIENTED_EDGE ( 'NONE', *, *, #176, .T. ) ;
#97 = APPROVAL_DATE_TIME ( #213, #215 ) ;
#98 = EDGE_CURVE ( 'NONE', #127, #12, #4, .T. ) ;
#99 = EDGE_CURVE ( 'NONE', #150, #212, #62, .T. ) ;
#100 = CLOSED_SHELL ( 'NONE', ( #135, #200, #195, #81, #139, #151 ) ) ;
#101 = CARTESIAN_POINT ( 'NONE',  ( -12.50000000000000000, -12.50000000000000000, -1.000000000000000000 ) ) ;
#102 = CC_DESIGN_APPROVAL ( #215, ( #76 ) ) ;
#103 = CARTESIAN_POINT ( 'NONE',  ( 12.50000000000000000, -12.50000000000000000, 1.000000000000000000 ) ) ;
#104 = DIRECTION ( 'NONE',  ( 0.0000000000000000000, -0.0000000000000000000, 1.000000000000000000 ) ) ;
#105 = EDGE_LOOP ( 'NONE', ( #134, #109, #52, #72 ) ) ;
#106 = CC_DESIGN_DATE_AND_TIME_ASSIGNMENT ( #182, #58, ( #183 ) ) ;
#107 = FACE_OUTER_BOUND ( 'NONE', #210, .T. ) ;
#108 = DIRECTION ( 'NONE',  ( 0.0000000000000000000, 0.0000000000000000000, 1.000000000000000000 ) ) ;
#109 = ORIENTED_EDGE ( 'NONE', *, *, #98, .F. ) ;
#110 = PRODUCT ( 'Web Model 48201_48201', 'Web Model 48201_48201', '', ( #184 ) ) ;
#111 = AXIS2_PLACEMENT_3D ( 'NONE', #178, #124, #180 ) ;
#112 = VECTOR ( 'NONE', #235, 1000.000000000000000 ) ;
#113 = ORIENTED_EDGE ( 'NONE', *, *, #25, .T. ) ;
#114 = CALENDAR_DATE ( 2019, 7, 1 ) ;
#115 = MANIFOLD_SOLID_BREP ( 'Boss-Extrude1', #100 ) ;
#116 = CC_DESIGN_PERSON_AND_ORGANIZATION_ASSIGNMENT ( #73, #165, ( #76 ) ) ;
#117 = DIRECTION ( 'NONE',  ( -1.000000000000000000, -0.0000000000000000000, -0.0000000000000000000 ) ) ;
#118 = ORIENTED_EDGE ( 'NONE', *, *, #6, .F. ) ;
#119 = DIRECTION ( 'NONE',  ( 0.0000000000000000000, 0.0000000000000000000, -1.000000000000000000 ) ) ;
#120 = APPROVAL_PERSON_ORGANIZATION ( #170, #215, #15 ) ;
#121 = CARTESIAN_POINT ( 'NONE',  ( -12.50000000000000000, 12.50000000000000000, 1.000000000000000000 ) ) ;
#122 = LINE ( 'NONE', #198, #78 ) ;
#123 = DIRECTION ( 'NONE',  ( 0.0000000000000000000, 1.000000000000000000, 0.0000000000000000000 ) ) ;
#124 = DIRECTION ( 'NONE',  ( -1.000000000000000000, 0.0000000000000000000, 0.0000000000000000000 ) ) ;
#125 = FACE_OUTER_BOUND ( 'NONE', #33, .T. ) ;
#126 = AXIS2_PLACEMENT_3D ( 'NONE', #152, #123, #104 ) ;
#127 = VERTEX_POINT ( 'NONE', #201 ) ;
#128 = PERSON_AND_ORGANIZATION_ROLE ( 'classification_officer' ) ;
#129 = APPROVAL_ROLE ( '' ) ;
#130 = VECTOR ( 'NONE', #43, 1000.000000000000000 ) ;
#131 = EDGE_CURVE ( 'NONE', #8, #12, #237, .T. ) ;
#132 = PERSON ( 'UNSPECIFIED', 'UNSPECIFIED', 'UNSPECIFIED', ('UNSPECIFIED'), ('UNSPECIFIED'), ('UNSPECIFIED') ) ;
#133 = APPROVAL_PERSON_ORGANIZATION ( #28, #145, #147 ) ;
#134 = ORIENTED_EDGE ( 'NONE', *, *, #131, .T. ) ;
#135 = ADVANCED_FACE ( 'NONE', ( #173 ), #140, .F. ) ;
#136 = ORGANIZATION ( 'UNSPECIFIED', 'UNSPECIFIED', '' ) ;
#137 = AXIS2_PLACEMENT_3D ( 'NONE', #234, #119, #11 ) ;
#138 = DIRECTION ( 'NONE',  ( -0.0000000000000000000, -1.000000000000000000, -0.0000000000000000000 ) ) ;
#139 = ADVANCED_FACE ( 'NONE', ( #125 ), #67, .F. ) ;
#140 = PLANE ( 'NONE',  #111 ) ;
#141 = DIRECTION ( 'NONE',  ( -0.0000000000000000000, -1.000000000000000000, -0.0000000000000000000 ) ) ;
#142 = PLANE ( 'NONE',  #191 ) ;
#143 = DIRECTION ( 'NONE',  ( 0.0000000000000000000, 1.000000000000000000, 0.0000000000000000000 ) ) ;
#144 = APPROVAL_STATUS ( 'not_yet_approved' ) ;
#145 = APPROVAL ( #144, 'UNSPECIFIED' ) ;
#146 = LINE ( 'NONE', #69, #181 ) ;
#147 = APPROVAL_ROLE ( '' ) ;
#148 = ORIENTED_EDGE ( 'NONE', *, *, #161, .T. ) ;
#149 = DIRECTION ( 'NONE',  ( -0.0000000000000000000, -0.0000000000000000000, -1.000000000000000000 ) ) ;
#150 = VERTEX_POINT ( 'NONE', #68 ) ;
#151 = ADVANCED_FACE ( 'NONE', ( #16 ), #142, .T. ) ;
#152 = CARTESIAN_POINT ( 'NONE',  ( -12.50000000000000000, -12.50000000000000000, 1.000000000000000000 ) ) ;
#153 = CARTESIAN_POINT ( 'NONE',  ( -12.50000000000000000, -12.50000000000000000, 1.000000000000000000 ) ) ;
#154 = DIRECTION ( 'NONE',  ( 1.000000000000000000, 0.0000000000000000000, 0.0000000000000000000 ) ) ;
#155 = DIRECTION ( 'NONE',  ( 0.0000000000000000000, 0.0000000000000000000, -1.000000000000000000 ) ) ;
#156 = CC_DESIGN_SECURITY_CLASSIFICATION ( #183, ( #76 ) ) ;
#157 = CARTESIAN_POINT ( 'NONE',  ( -12.50000000000000000, -12.50000000000000000, 1.000000000000000000 ) ) ;
#158 = DATE_AND_TIME ( #214, #202 ) ;
#159 = COORDINATED_UNIVERSAL_TIME_OFFSET ( 5, 0, .BEHIND. ) ;
#160 = DIRECTION ( 'NONE',  ( 0.0000000000000000000, -0.0000000000000000000, -1.000000000000000000 ) ) ;
#161 = EDGE_CURVE ( 'NONE', #127, #61, #41, .T. ) ;
#162 = CARTESIAN_POINT ( 'NONE',  ( 12.50000000000000000, 12.50000000000000000, -1.000000000000000000 ) ) ;
#163 = LOCAL_TIME ( 10, 22, 49.00000000000000000, #207 ) ;
#164 = SHAPE_DEFINITION_REPRESENTATION ( #27, #89 ) ;
#165 = PERSON_AND_ORGANIZATION_ROLE ( 'design_supplier' ) ;
#166 = EDGE_CURVE ( 'NONE', #150, #204, #92, .T. ) ;
#167 = APPROVAL_PERSON_ORGANIZATION ( #220, #205, #129 ) ;
#168 = CALENDAR_DATE ( 2019, 7, 1 ) ;
#169 = ORIENTED_EDGE ( 'NONE', *, *, #19, .F. ) ;
#170 = PERSON_AND_ORGANIZATION ( #132, #136 ) ;
#171 = VECTOR ( 'NONE', #175, 1000.000000000000000 ) ;
#172 = UNCERTAINTY_MEASURE_WITH_UNIT (LENGTH_MEASURE( 1.000000000000000100E-005 ), #186, 'distance_accuracy_value', 'NONE');
#173 = FACE_OUTER_BOUND ( 'NONE', #216, .T. ) ;
#174 =( GEOMETRIC_REPRESENTATION_CONTEXT ( 3 ) GLOBAL_UNCERTAINTY_ASSIGNED_CONTEXT ( ( #172 ) ) GLOBAL_UNIT_ASSIGNED_CONTEXT ( ( #186, #31, #5 ) ) REPRESENTATION_CONTEXT ( 'NONE', 'WORKASPACE' ) );
#175 = DIRECTION ( 'NONE',  ( -1.000000000000000000, -0.0000000000000000000, -0.0000000000000000000 ) ) ;
#176 = EDGE_CURVE ( 'NONE', #61, #230, #146, .T. ) ;
#177 = DIRECTION ( 'NONE',  ( 1.000000000000000000, 0.0000000000000000000, 0.0000000000000000000 ) ) ;
#178 = CARTESIAN_POINT ( 'NONE',  ( 12.50000000000000000, -12.50000000000000000, 1.000000000000000000 ) ) ;
#179 = LINE ( 'NONE', #101, #47 ) ;
#180 = DIRECTION ( 'NONE',  ( 0.0000000000000000000, 0.0000000000000000000, 1.000000000000000000 ) ) ;
#181 = VECTOR ( 'NONE', #26, 1000.000000000000000 ) ;
#182 = DATE_AND_TIME ( #83, #50 ) ;
#183 = SECURITY_CLASSIFICATION ( '', '', #189 ) ;
#184 = MECHANICAL_CONTEXT ( 'NONE', #54, 'mechanical' ) ;
#185 = VECTOR ( 'NONE', #177, 1000.000000000000000 ) ;
#186 =( LENGTH_UNIT ( ) NAMED_UNIT ( * ) SI_UNIT ( .MILLI., .METRE. ) );
#187 = APPROVAL_STATUS ( 'not_yet_approved' ) ;
#188 = ORIENTED_EDGE ( 'NONE', *, *, #166, .F. ) ;
#189 = SECURITY_CLASSIFICATION_LEVEL ( 'unclassified' ) ;
#190 = CC_DESIGN_PERSON_AND_ORGANIZATION_ASSIGNMENT ( #80, #128, ( #183 ) ) ;
#191 = AXIS2_PLACEMENT_3D ( 'NONE', #203, #155, #219 ) ;
#192 = ORIENTED_EDGE ( 'NONE', *, *, #19, .T. ) ;
#193 = COORDINATED_UNIVERSAL_TIME_OFFSET ( 5, 0, .BEHIND. ) ;
#194 = EDGE_CURVE ( 'NONE', #204, #127, #77, .T. ) ;
#195 = ADVANCED_FACE ( 'NONE', ( #86 ), #23, .F. ) ;
#196 = AXIS2_PLACEMENT_3D ( 'NONE', #46, #91, #53 ) ;
#197 = CARTESIAN_POINT ( 'NONE',  ( 12.50000000000000000, -12.50000000000000000, -1.000000000000000000 ) ) ;
#198 = CARTESIAN_POINT ( 'NONE',  ( -12.50000000000000000, 12.50000000000000000, -1.000000000000000000 ) ) ;
#199 = PERSON_AND_ORGANIZATION ( #132, #136 ) ;
#200 = ADVANCED_FACE ( 'NONE', ( #107 ), #66, .F. ) ;
#201 = CARTESIAN_POINT ( 'NONE',  ( 12.50000000000000000, -12.50000000000000000, 1.000000000000000000 ) ) ;
#202 = LOCAL_TIME ( 10, 22, 49.00000000000000000, #70 ) ;
#203 = CARTESIAN_POINT ( 'NONE',  ( 0.0000000000000000000, 0.0000000000000000000, -1.000000000000000000 ) ) ;
#204 = VERTEX_POINT ( 'NONE', #209 ) ;
#205 = APPROVAL ( #206, 'UNSPECIFIED' ) ;
#206 = APPROVAL_STATUS ( 'not_yet_approved' ) ;
#207 = COORDINATED_UNIVERSAL_TIME_OFFSET ( 5, 0, .BEHIND. ) ;
#208 = APPLICATION_PROTOCOL_DEFINITION ( 'international standard', 'config_control_design', 1994, #54 ) ;
#209 = CARTESIAN_POINT ( 'NONE',  ( -12.50000000000000000, -12.50000000000000000, 1.000000000000000000 ) ) ;
#210 = EDGE_LOOP ( 'NONE', ( #39, #65, #169, #96 ) ) ;
#211 = APPROVAL_DATE_TIME ( #158, #205 ) ;
#212 = VERTEX_POINT ( 'NONE', #14 ) ;
#213 = DATE_AND_TIME ( #20, #74 ) ;
#214 = CALENDAR_DATE ( 2019, 7, 1 ) ;
#215 = APPROVAL ( #187, 'UNSPECIFIED' ) ;
#216 = EDGE_LOOP ( 'NONE', ( #113, #94, #13, #2 ) ) ;
#217 = CARTESIAN_POINT ( 'NONE',  ( 12.50000000000000000, -12.50000000000000000, -1.000000000000000000 ) ) ;
#218 = COORDINATED_UNIVERSAL_TIME_OFFSET ( 5, 0, .BEHIND. ) ;
#219 = DIRECTION ( 'NONE',  ( -1.000000000000000000, 0.0000000000000000000, -0.0000000000000000000 ) ) ;
#220 = PERSON_AND_ORGANIZATION ( #132, #136 ) ;
#221 = ORIENTED_EDGE ( 'NONE', *, *, #25, .F. ) ;
#222 = DIRECTION ( 'NONE',  ( 1.000000000000000000, 0.0000000000000000000, 0.0000000000000000000 ) ) ;
#223 = APPLICATION_PROTOCOL_DEFINITION ( 'international standard', 'config_control_design', 1994, #93 ) ;
#224 = DATE_AND_TIME ( #114, #163 ) ;
#225 = CARTESIAN_POINT ( 'NONE',  ( -12.50000000000000000, 12.50000000000000000, 1.000000000000000000 ) ) ;
#226 = LINE ( 'NONE', #217, #130 ) ;
#227 = DESIGN_CONTEXT ( 'detailed design', #93, 'design' ) ;
#228 = PRODUCT_RELATED_PRODUCT_CATEGORY ( 'detail', '', ( #110 ) ) ;
#229 = CC_DESIGN_DATE_AND_TIME_ASSIGNMENT ( #224, #59, ( #35 ) ) ;
#230 = VERTEX_POINT ( 'NONE', #162 ) ;
#231 = FACE_OUTER_BOUND ( 'NONE', #105, .T. ) ;
#232 = VECTOR ( 'NONE', #149, 1000.000000000000000 ) ;
#233 = EDGE_LOOP ( 'NONE', ( #18, #118, #188, #29 ) ) ;
#234 = CARTESIAN_POINT ( 'NONE',  ( 0.0000000000000000000, 0.0000000000000000000, 1.000000000000000000 ) ) ;
#235 = DIRECTION ( 'NONE',  ( -0.0000000000000000000, -0.0000000000000000000, -1.000000000000000000 ) ) ;
#236 = EDGE_LOOP ( 'NONE', ( #221, #45, #88, #84 ) ) ;
#237 = LINE ( 'NONE', #1, #95 ) ;
ENDSEC;
END-ISO-10303-21;
