ISO-10303-21;
HEADER;
FILE_DESCRIPTION (( 'STEP AP214' ),
    '1' );
FILE_NAME ('19054-E0W.STEP',
    '2009-12-21T17:11:10',
    ( ' ' ),
    ( ' ' ),
    'SwSTEP 2.0',
    'SolidWorks 2009',
    '' );
FILE_SCHEMA (( 'AUTOMOTIVE_DESIGN' ));
ENDSEC;

DATA;
#1 = UNCERTAINTY_MEASURE_WITH_UNIT (LENGTH_MEASURE( 1.000000000000000100E-005 ), #3, 'distance_accuracy_value', 'NONE');
#2 = FILL_AREA_STYLE ('',( #44 ) ) ;
#3 =( LENGTH_UNIT ( ) NAMED_UNIT ( * ) SI_UNIT ( .MILLI., .METRE. ) );
#4 = SURFACE_SIDE_STYLE ('',( #32 ) ) ;
#5 =( NAMED_UNIT ( * ) PLANE_ANGLE_UNIT ( ) SI_UNIT ( $, .RADIAN. ) );
#6 = DIRECTION ( 'NONE',  ( 1.000000000000000000, 0.0000000000000000000, 0.0000000000000000000 ) ) ;
#7 = DIRECTION ( 'NONE',  ( -0.0000000000000000000, -0.0000000000000000000, 1.000000000000000000 ) ) ;
#8 = AXIS2_PLACEMENT_3D ( 'NONE', #48, #7, #6 ) ;
#9 = CIRCLE ( 'NONE', #8, 12.49999999999999800 ) ;
#10 = DIRECTION ( 'NONE',  ( -0.0000000000000000000, -0.0000000000000000000, 1.000000000000000000 ) ) ;
#11 = CARTESIAN_POINT ( 'NONE',  ( 0.0000000000000000000, 0.0000000000000000000, 4.308132045400366600 ) ) ;
#12 = AXIS2_PLACEMENT_3D ( 'NONE', #11, #10, #57 ) ;
#13 =( LENGTH_UNIT ( ) NAMED_UNIT ( * ) SI_UNIT ( .MILLI., .METRE. ) );
#14 = CYLINDRICAL_SURFACE ( 'NONE', #12, 12.50000000000000000 ) ;
#15 =( LENGTH_UNIT ( ) NAMED_UNIT ( * ) SI_UNIT ( .MILLI., .METRE. ) );
#16 = MECHANICAL_DESIGN_GEOMETRIC_PRESENTATION_REPRESENTATION (  '', ( #18 ), #24 ) ;
#17 = PRESENTATION_LAYER_ASSIGNMENT (  '', '', ( #18 ) ) ;
#18 = STYLED_ITEM ( 'NONE', ( #19 ), #240 ) ;
#19 = PRESENTATION_STYLE_ASSIGNMENT (( #20 ) ) ;
#20 = SURFACE_STYLE_USAGE ( .BOTH. , #33 ) ;
#21 =( NAMED_UNIT ( * ) SI_UNIT ( $, .STERADIAN. ) SOLID_ANGLE_UNIT ( ) );
#22 =( NAMED_UNIT ( * ) PLANE_ANGLE_UNIT ( ) SI_UNIT ( $, .RADIAN. ) );
#23 = SURFACE_STYLE_USAGE ( .BOTH. , #4 ) ;
#24 =( GEOMETRIC_REPRESENTATION_CONTEXT ( 3 ) GLOBAL_UNCERTAINTY_ASSIGNED_CONTEXT ( ( #25 ) ) GLOBAL_UNIT_ASSIGNED_CONTEXT ( ( #15, #22, #21 ) ) REPRESENTATION_CONTEXT ( 'NONE', 'WORKASPACE' ) );
#25 = UNCERTAINTY_MEASURE_WITH_UNIT (LENGTH_MEASURE( 1.000000000000000100E-005 ), #15, 'distance_accuracy_value', 'NONE');
#26 = DIRECTION ( 'NONE',  ( -1.000000000000000000, 1.224606353822377300E-016, 0.0000000000000000000 ) ) ;
#27 = CARTESIAN_POINT ( 'NONE',  ( 0.0000000000000000000, 0.0000000000000000000, -36.54999999999999700 ) ) ;
#28 = CARTESIAN_POINT ( 'NONE',  ( 0.0000000000000000000, 2.363490262877188000E-015, 2.049999999999996300 ) ) ;
#29 = AXIS2_PLACEMENT_3D ( 'NONE', #31, #54, #49 ) ;
#30 = SPHERICAL_SURFACE ( 'NONE', #29, 38.59999999999999400 ) ;
#31 = CARTESIAN_POINT ( 'NONE',  ( 0.0000000000000000000, 0.0000000000000000000, -36.54999999999999700 ) ) ;
#32 = SURFACE_STYLE_FILL_AREA ( #2 ) ;
#33 = SURFACE_SIDE_STYLE ('',( #34 ) ) ;
#34 = SURFACE_STYLE_FILL_AREA ( #35 ) ;
#35 = FILL_AREA_STYLE ('',( #53 ) ) ;
#36 = COLOUR_RGB ( '',0.9568627450980391500, 0.9490196078431372100, 0.9607843137254902200 ) ;
#37 = FACE_OUTER_BOUND ( 'NONE', #252, .T. ) ;
#38 = STYLED_ITEM ( 'NONE', ( #39 ), #233 ) ;
#39 = PRESENTATION_STYLE_ASSIGNMENT (( #23 ) ) ;
#40 =( GEOMETRIC_REPRESENTATION_CONTEXT ( 3 ) GLOBAL_UNCERTAINTY_ASSIGNED_CONTEXT ( ( #1 ) ) GLOBAL_UNIT_ASSIGNED_CONTEXT ( ( #3, #5, #55 ) ) REPRESENTATION_CONTEXT ( 'NONE', 'WORKASPACE' ) );
#41 = CIRCLE ( 'NONE', #50, 38.59999999999999400 ) ;
#42 = MECHANICAL_DESIGN_GEOMETRIC_PRESENTATION_REPRESENTATION (  '', ( #38 ), #40 ) ;
#43 = PRESENTATION_LAYER_ASSIGNMENT (  '', '', ( #38 ) ) ;
#44 = FILL_AREA_STYLE_COLOUR ( '', #52 ) ;
#45 = CARTESIAN_POINT ( 'NONE',  ( 0.0000000000000000000, 0.0000000000000000000, -36.54999999999999700 ) ) ;
#46 = FACE_OUTER_BOUND ( 'NONE', #234, .T. ) ;
#47 = DIRECTION ( 'NONE',  ( 0.0000000000000000000, 0.0000000000000000000, -1.000000000000000000 ) ) ;
#48 = CARTESIAN_POINT ( 'NONE',  ( 0.0000000000000000000, 0.0000000000000000000, -0.03000547645166766500 ) ) ;
#49 = DIRECTION ( 'NONE',  ( 0.0000000000000000000, 1.000000000000000000, 0.0000000000000000000 ) ) ;
#50 = AXIS2_PLACEMENT_3D ( 'NONE', #45, #51, #47 ) ;
#51 = DIRECTION ( 'NONE',  ( 1.000000000000000000, 0.0000000000000000000, 0.0000000000000000000 ) ) ;
#52 = COLOUR_RGB ( '',0.9568627450980391500, 0.9490196078431372100, 0.9607843137254902200 ) ;
#53 = FILL_AREA_STYLE_COLOUR ( '', #36 ) ;
#54 = DIRECTION ( 'NONE',  ( -1.000000000000000000, 0.0000000000000000000, 0.0000000000000000000 ) ) ;
#55 =( NAMED_UNIT ( * ) SI_UNIT ( $, .STERADIAN. ) SOLID_ANGLE_UNIT ( ) );
#56 = DIRECTION ( 'NONE',  ( -1.224606353822377300E-016, -1.000000000000000000, 0.0000000000000000000 ) ) ;
#57 = DIRECTION ( 'NONE',  ( 1.000000000000000000, 0.0000000000000000000, 0.0000000000000000000 ) ) ;
#58 =( NAMED_UNIT ( * ) PLANE_ANGLE_UNIT ( ) SI_UNIT ( $, .RADIAN. ) );
#59 =( NAMED_UNIT ( * ) SI_UNIT ( $, .STERADIAN. ) SOLID_ANGLE_UNIT ( ) );
#60 = UNCERTAINTY_MEASURE_WITH_UNIT (LENGTH_MEASURE( 1.000000000000000100E-005 ), #13, 'distance_accuracy_value', 'NONE');
#61 = PRESENTATION_STYLE_ASSIGNMENT (( #62 ) ) ;
#62 = SURFACE_STYLE_USAGE ( .BOTH. , #65 ) ;
#63 = FILL_AREA_STYLE_COLOUR ( '', #69 ) ;
#64 = SURFACE_STYLE_FILL_AREA ( #70 ) ;
#65 = SURFACE_SIDE_STYLE ('',( #64 ) ) ;
#66 = MECHANICAL_DESIGN_GEOMETRIC_PRESENTATION_REPRESENTATION (  '', ( #68 ), #81 ) ;
#67 = PRESENTATION_LAYER_ASSIGNMENT (  '', '', ( #68 ) ) ;
#68 = STYLED_ITEM ( 'NONE', ( #61 ), #241 ) ;
#69 = COLOUR_RGB ( '',0.7960784313725489700, 0.8235294117647058400, 0.9372549019607843100 ) ;
#70 = FILL_AREA_STYLE ('',( #63 ) ) ;
#71 = FILL_AREA_STYLE_COLOUR ( '', #82 ) ;
#72 =( NAMED_UNIT ( * ) SI_UNIT ( $, .STERADIAN. ) SOLID_ANGLE_UNIT ( ) );
#73 =( NAMED_UNIT ( * ) PLANE_ANGLE_UNIT ( ) SI_UNIT ( $, .RADIAN. ) );
#74 = SURFACE_SIDE_STYLE ('',( #76 ) ) ;
#75 =( LENGTH_UNIT ( ) NAMED_UNIT ( * ) SI_UNIT ( .MILLI., .METRE. ) );
#76 = SURFACE_STYLE_FILL_AREA ( #83 ) ;
#77 = FACE_OUTER_BOUND ( 'NONE', #243, .T. ) ;
#78 = MECHANICAL_DESIGN_GEOMETRIC_PRESENTATION_REPRESENTATION (  '', ( #80 ), #87 ) ;
#79 = PRESENTATION_LAYER_ASSIGNMENT (  '', '', ( #80 ) ) ;
#80 = STYLED_ITEM ( 'NONE', ( #84 ), #242 ) ;
#81 =( GEOMETRIC_REPRESENTATION_CONTEXT ( 3 ) GLOBAL_UNCERTAINTY_ASSIGNED_CONTEXT ( ( #60 ) ) GLOBAL_UNIT_ASSIGNED_CONTEXT ( ( #13, #58, #59 ) ) REPRESENTATION_CONTEXT ( 'NONE', 'WORKASPACE' ) );
#82 = COLOUR_RGB ( '',0.9568627450980391500, 0.9490196078431372100, 0.9607843137254902200 ) ;
#83 = FILL_AREA_STYLE ('',( #71 ) ) ;
#84 = PRESENTATION_STYLE_ASSIGNMENT (( #85 ) ) ;
#85 = SURFACE_STYLE_USAGE ( .BOTH. , #74 ) ;
#86 = UNCERTAINTY_MEASURE_WITH_UNIT (LENGTH_MEASURE( 1.000000000000000100E-005 ), #75, 'distance_accuracy_value', 'NONE');
#87 =( GEOMETRIC_REPRESENTATION_CONTEXT ( 3 ) GLOBAL_UNCERTAINTY_ASSIGNED_CONTEXT ( ( #86 ) ) GLOBAL_UNIT_ASSIGNED_CONTEXT ( ( #75, #73, #72 ) ) REPRESENTATION_CONTEXT ( 'NONE', 'WORKASPACE' ) );
#88 =( GEOMETRIC_REPRESENTATION_CONTEXT ( 3 ) GLOBAL_UNCERTAINTY_ASSIGNED_CONTEXT ( ( #116 ) ) GLOBAL_UNIT_ASSIGNED_CONTEXT ( ( #106, #105, #117 ) ) REPRESENTATION_CONTEXT ( 'NONE', 'WORKASPACE' ) );
#89 = DIRECTION ( 'NONE',  ( -0.0000000000000000000, -0.0000000000000000000, 1.000000000000000000 ) ) ;
#90 = CYLINDRICAL_SURFACE ( 'NONE', #93, 12.50000000000000000 ) ;
#91 = CARTESIAN_POINT ( 'NONE',  ( 0.0000000000000000000, 0.0000000000000000000, 4.308132045400366600 ) ) ;
#92 = DIRECTION ( 'NONE',  ( 1.000000000000000000, 0.0000000000000000000, 0.0000000000000000000 ) ) ;
#93 = AXIS2_PLACEMENT_3D ( 'NONE', #91, #89, #92 ) ;
#94 = CARTESIAN_POINT ( 'NONE',  ( 0.0000000000000000000, 0.0000000000000000000, -2.049999999999999800 ) ) ;
#95 = CIRCLE ( 'NONE', #104, 12.50000000000000000 ) ;
#96 = MECHANICAL_DESIGN_GEOMETRIC_PRESENTATION_REPRESENTATION (  '', ( #98 ), #88 ) ;
#97 = PRESENTATION_LAYER_ASSIGNMENT (  '', '', ( #98 ) ) ;
#98 = STYLED_ITEM ( 'NONE', ( #99 ), #259 ) ;
#99 = PRESENTATION_STYLE_ASSIGNMENT (( #100 ) ) ;
#100 = SURFACE_STYLE_USAGE ( .BOTH. , #101 ) ;
#101 = SURFACE_SIDE_STYLE ('',( #102 ) ) ;
#102 = SURFACE_STYLE_FILL_AREA ( #121 ) ;
#103 = COLOUR_RGB ( '',0.9568627450980391500, 0.9490196078431372100, 0.9607843137254902200 ) ;
#104 = AXIS2_PLACEMENT_3D ( 'NONE', #94, #108, #112 ) ;
#105 =( NAMED_UNIT ( * ) PLANE_ANGLE_UNIT ( ) SI_UNIT ( $, .RADIAN. ) );
#106 =( LENGTH_UNIT ( ) NAMED_UNIT ( * ) SI_UNIT ( .MILLI., .METRE. ) );
#107 = CARTESIAN_POINT ( 'NONE',  ( -12.49999999999999800, 1.530757942277971400E-015, -0.03000547645166766500 ) ) ;
#108 = DIRECTION ( 'NONE',  ( -0.0000000000000000000, -0.0000000000000000000, 1.000000000000000000 ) ) ;
#109 = CIRCLE ( 'NONE', #125, 12.50000000000000000 ) ;
#110 = CARTESIAN_POINT ( 'NONE',  ( -12.50000000000000000, 1.530757942277971600E-015, -2.049999999999999800 ) ) ;
#111 = CARTESIAN_POINT ( 'NONE',  ( 12.50000000000000000, 0.0000000000000000000, -2.049999999999999800 ) ) ;
#112 = DIRECTION ( 'NONE',  ( 1.000000000000000000, 0.0000000000000000000, 0.0000000000000000000 ) ) ;
#113 = DIRECTION ( 'NONE',  ( -0.0000000000000000000, -0.0000000000000000000, 1.000000000000000000 ) ) ;
#114 = CARTESIAN_POINT ( 'NONE',  ( -12.50000000000000000, 1.530757942277971600E-015, 4.308132045400366600 ) ) ;
#115 = LINE ( 'NONE', #114, #120 ) ;
#116 = UNCERTAINTY_MEASURE_WITH_UNIT (LENGTH_MEASURE( 1.000000000000000100E-005 ), #106, 'distance_accuracy_value', 'NONE');
#117 =( NAMED_UNIT ( * ) SI_UNIT ( $, .STERADIAN. ) SOLID_ANGLE_UNIT ( ) );
#118 = FILL_AREA_STYLE_COLOUR ( '', #103 ) ;
#119 = FACE_OUTER_BOUND ( 'NONE', #260, .T. ) ;
#120 = VECTOR ( 'NONE', #113, 1000.000000000000000 ) ;
#121 = FILL_AREA_STYLE ('',( #118 ) ) ;
#122 = DIRECTION ( 'NONE',  ( 1.000000000000000000, 0.0000000000000000000, 0.0000000000000000000 ) ) ;
#123 = DIRECTION ( 'NONE',  ( -0.0000000000000000000, -0.0000000000000000000, 1.000000000000000000 ) ) ;
#124 = CARTESIAN_POINT ( 'NONE',  ( 0.0000000000000000000, 0.0000000000000000000, -2.049999999999999800 ) ) ;
#125 = AXIS2_PLACEMENT_3D ( 'NONE', #124, #123, #122 ) ;
#126 = PRODUCT_DEFINITION_SHAPE ( 'NONE', 'NONE',  #129 ) ;
#127 = PRODUCT_RELATED_PRODUCT_CATEGORY ( 'part', '', ( #133 ) ) ;
#128 = PRODUCT_DEFINITION_FORMATION_WITH_SPECIFIED_SOURCE ( 'ANY', '', #133, .NOT_KNOWN. ) ;
#129 = PRODUCT_DEFINITION ( 'UNKNOWN', '', #128, #130 ) ;
#130 = PRODUCT_DEFINITION_CONTEXT ( 'detailed design', #132, 'design' ) ;
#131 = APPLICATION_PROTOCOL_DEFINITION ( 'draft international standard', 'automotive_design', 1998, #132 ) ;
#132 = APPLICATION_CONTEXT ( 'automotive_design' ) ;
#133 = PRODUCT ( '19054-E0W', '19054-E0W', '', ( #134 ) ) ;
#134 = PRODUCT_CONTEXT ( 'NONE', #148, 'mechanical' ) ;
#135 = APPLICATION_PROTOCOL_DEFINITION ( 'draft international standard', 'automotive_design', 1998, #148 ) ;
#136 = AXIS2_PLACEMENT_3D ( 'NONE', #158, #157, #156 ) ;
#137 = PLANE ( 'NONE',  #136 ) ;
#138 =( LENGTH_UNIT ( ) NAMED_UNIT ( * ) SI_UNIT ( .MILLI., .METRE. ) );
#139 = PRESENTATION_LAYER_ASSIGNMENT (  '', '', ( #140 ) ) ;
#140 = STYLED_ITEM ( 'NONE', ( #141 ), #149 ) ;
#141 = PRESENTATION_STYLE_ASSIGNMENT (( #142 ) ) ;
#142 = SURFACE_STYLE_USAGE ( .BOTH. , #143 ) ;
#143 = SURFACE_SIDE_STYLE ('',( #144 ) ) ;
#144 = SURFACE_STYLE_FILL_AREA ( #145 ) ;
#145 = FILL_AREA_STYLE ('',( #146 ) ) ;
#146 = FILL_AREA_STYLE_COLOUR ( '', #147 ) ;
#147 = COLOUR_RGB ( '',0.7960784313725489700, 0.8235294117647058400, 0.9372549019607843100 ) ;
#148 = APPLICATION_CONTEXT ( 'automotive_design' ) ;
#149 = ADVANCED_BREP_SHAPE_REPRESENTATION ( '19054-E0W', ( #241, #155 ), #150 ) ;
#150 =( GEOMETRIC_REPRESENTATION_CONTEXT ( 3 ) GLOBAL_UNCERTAINTY_ASSIGNED_CONTEXT ( ( #167 ) ) GLOBAL_UNIT_ASSIGNED_CONTEXT ( ( #138, #159, #154 ) ) REPRESENTATION_CONTEXT ( 'NONE', 'WORKASPACE' ) );
#151 = SHAPE_DEFINITION_REPRESENTATION ( #126, #149 ) ;
#152 = DIRECTION ( 'NONE',  ( 1.000000000000000000, 0.0000000000000000000, 0.0000000000000000000 ) ) ;
#153 =( GEOMETRIC_REPRESENTATION_CONTEXT ( 3 ) GLOBAL_UNCERTAINTY_ASSIGNED_CONTEXT ( ( #162 ) ) GLOBAL_UNIT_ASSIGNED_CONTEXT ( ( #165, #164, #163 ) ) REPRESENTATION_CONTEXT ( 'NONE', 'WORKASPACE' ) );
#154 =( NAMED_UNIT ( * ) SI_UNIT ( $, .STERADIAN. ) SOLID_ANGLE_UNIT ( ) );
#155 = AXIS2_PLACEMENT_3D ( 'NONE', #160, #161, #152 ) ;
#156 = DIRECTION ( 'NONE',  ( 1.000000000000000000, 0.0000000000000000000, 0.0000000000000000000 ) ) ;
#157 = DIRECTION ( 'NONE',  ( 0.0000000000000000000, -0.0000000000000000000, 1.000000000000000000 ) ) ;
#158 = CARTESIAN_POINT ( 'NONE',  ( 0.0000000000000000000, 7.531577814756220100E-016, -2.049999999999999800 ) ) ;
#159 =( NAMED_UNIT ( * ) PLANE_ANGLE_UNIT ( ) SI_UNIT ( $, .RADIAN. ) );
#160 = CARTESIAN_POINT ( 'NONE',  ( 0.0000000000000000000, 0.0000000000000000000, 0.0000000000000000000 ) ) ;
#161 = DIRECTION ( 'NONE',  ( 0.0000000000000000000, 0.0000000000000000000, 1.000000000000000000 ) ) ;
#162 = UNCERTAINTY_MEASURE_WITH_UNIT (LENGTH_MEASURE( 1.000000000000000100E-005 ), #165, 'distance_accuracy_value', 'NONE');
#163 =( NAMED_UNIT ( * ) SI_UNIT ( $, .STERADIAN. ) SOLID_ANGLE_UNIT ( ) );
#164 =( NAMED_UNIT ( * ) PLANE_ANGLE_UNIT ( ) SI_UNIT ( $, .RADIAN. ) );
#165 =( LENGTH_UNIT ( ) NAMED_UNIT ( * ) SI_UNIT ( .MILLI., .METRE. ) );
#166 = MECHANICAL_DESIGN_GEOMETRIC_PRESENTATION_REPRESENTATION (  '', ( #140 ), #153 ) ;
#167 = UNCERTAINTY_MEASURE_WITH_UNIT (LENGTH_MEASURE( 1.000000000000000100E-005 ), #138, 'distance_accuracy_value', 'NONE');
#168 = ORIENTED_EDGE ( 'NONE', *, *, #255, .F. ) ;
#169 = CLOSED_SHELL ( 'NONE', ( #242, #222, #233, #240, #259 ) ) ;
#170 = AXIS2_PLACEMENT_3D ( 'NONE', #27, #26, #56 ) ;
#171 = CIRCLE ( 'NONE', #170, 38.59999999999999400 ) ;
#172 = CARTESIAN_POINT ( 'NONE',  ( -1.530757942277970200E-015, -12.49999999999999100, -0.03000547645166506300 ) ) ;
#173 = DIRECTION ( 'NONE',  ( 1.000000000000000000, 0.0000000000000000000, 0.0000000000000000000 ) ) ;
#174 = DIRECTION ( 'NONE',  ( -0.0000000000000000000, -0.0000000000000000000, 1.000000000000000000 ) ) ;
#175 = CARTESIAN_POINT ( 'NONE',  ( 0.0000000000000000000, 0.0000000000000000000, -0.03000547645166766500 ) ) ;
#176 = AXIS2_PLACEMENT_3D ( 'NONE', #175, #174, #173 ) ;
#177 = DIRECTION ( 'NONE',  ( 0.0000000000000000000, 1.000000000000000000, 0.0000000000000000000 ) ) ;
#178 = DIRECTION ( 'NONE',  ( -1.000000000000000000, 0.0000000000000000000, 0.0000000000000000000 ) ) ;
#179 = CARTESIAN_POINT ( 'NONE',  ( 0.0000000000000000000, 0.0000000000000000000, -36.54999999999999700 ) ) ;
#180 = AXIS2_PLACEMENT_3D ( 'NONE', #179, #178, #177 ) ;
#181 = CIRCLE ( 'NONE', #176, 12.49999999999999800 ) ;
#182 = SPHERICAL_SURFACE ( 'NONE', #180, 38.59999999999999400 ) ;
#183 =( GEOMETRIC_REPRESENTATION_CONTEXT ( 3 ) GLOBAL_UNCERTAINTY_ASSIGNED_CONTEXT ( ( #184 ) ) GLOBAL_UNIT_ASSIGNED_CONTEXT ( ( #187, #186, #185 ) ) REPRESENTATION_CONTEXT ( 'NONE', 'WORKASPACE' ) );
#184 = UNCERTAINTY_MEASURE_WITH_UNIT (LENGTH_MEASURE( 1.000000000000000100E-005 ), #187, 'distance_accuracy_value', 'NONE');
#185 =( NAMED_UNIT ( * ) SI_UNIT ( $, .STERADIAN. ) SOLID_ANGLE_UNIT ( ) );
#186 =( NAMED_UNIT ( * ) PLANE_ANGLE_UNIT ( ) SI_UNIT ( $, .RADIAN. ) );
#187 =( LENGTH_UNIT ( ) NAMED_UNIT ( * ) SI_UNIT ( .MILLI., .METRE. ) );
#188 = MECHANICAL_DESIGN_GEOMETRIC_PRESENTATION_REPRESENTATION (  '', ( #190 ), #183 ) ;
#189 = PRESENTATION_LAYER_ASSIGNMENT (  '', '', ( #190 ) ) ;
#190 = STYLED_ITEM ( 'NONE', ( #191 ), #222 ) ;
#191 = PRESENTATION_STYLE_ASSIGNMENT (( #192 ) ) ;
#192 = SURFACE_STYLE_USAGE ( .BOTH. , #193 ) ;
#193 = SURFACE_SIDE_STYLE ('',( #194 ) ) ;
#194 = SURFACE_STYLE_FILL_AREA ( #195 ) ;
#195 = FILL_AREA_STYLE ('',( #202 ) ) ;
#196 = COLOUR_RGB ( '',0.9568627450980391500, 0.9490196078431372100, 0.9607843137254902200 ) ;
#197 = FACE_OUTER_BOUND ( 'NONE', #223, .T. ) ;
#198 = DIRECTION ( 'NONE',  ( -0.0000000000000000000, -0.0000000000000000000, 1.000000000000000000 ) ) ;
#199 = VECTOR ( 'NONE', #198, 1000.000000000000000 ) ;
#200 = CARTESIAN_POINT ( 'NONE',  ( 12.50000000000000000, 0.0000000000000000000, 4.308132045400366600 ) ) ;
#201 = LINE ( 'NONE', #200, #199 ) ;
#202 = FILL_AREA_STYLE_COLOUR ( '', #196 ) ;
#203 = CARTESIAN_POINT ( 'NONE',  ( 12.49999999999999800, 0.0000000000000000000, -0.03000547645166766500 ) ) ;
#204 = DIRECTION ( 'NONE',  ( 1.000000000000000000, 0.0000000000000000000, 0.0000000000000000000 ) ) ;
#205 = DIRECTION ( 'NONE',  ( -0.0000000000000000000, -0.0000000000000000000, 1.000000000000000000 ) ) ;
#206 = CARTESIAN_POINT ( 'NONE',  ( 0.0000000000000000000, 0.0000000000000000000, -0.03000547645166766500 ) ) ;
#207 = AXIS2_PLACEMENT_3D ( 'NONE', #206, #205, #204 ) ;
#208 = CIRCLE ( 'NONE', #207, 12.49999999999999800 ) ;
#209 = CARTESIAN_POINT ( 'NONE',  ( 0.0000000000000000000, 12.49999999999999100, -0.03000547645166506300 ) ) ;
#210 = DIRECTION ( 'NONE',  ( 1.000000000000000000, 0.0000000000000000000, 0.0000000000000000000 ) ) ;
#211 = DIRECTION ( 'NONE',  ( -0.0000000000000000000, -0.0000000000000000000, 1.000000000000000000 ) ) ;
#212 = CARTESIAN_POINT ( 'NONE',  ( 0.0000000000000000000, 0.0000000000000000000, -0.03000547645166766500 ) ) ;
#213 = AXIS2_PLACEMENT_3D ( 'NONE', #212, #211, #210 ) ;
#214 = CIRCLE ( 'NONE', #213, 12.49999999999999800 ) ;
#215 = EDGE_CURVE ( 'NONE', #216, #250, #214, .T. ) ;
#216 = VERTEX_POINT ( 'NONE', #209 ) ;
#217 = ORIENTED_EDGE ( 'NONE', *, *, #218, .F. ) ;
#218 = EDGE_CURVE ( 'NONE', #219, #216, #208, .T. ) ;
#219 = VERTEX_POINT ( 'NONE', #203 ) ;
#220 = ORIENTED_EDGE ( 'NONE', *, *, #221, .F. ) ;
#221 = EDGE_CURVE ( 'NONE', #246, #219, #201, .T. ) ;
#222 = ADVANCED_FACE ( 'NONE', ( #197 ), #182, .T. ) ;
#223 = EDGE_LOOP ( 'NONE', ( #224, #225, #228, #231 ) ) ;
#224 = ORIENTED_EDGE ( 'NONE', *, *, #215, .T. ) ;
#225 = ORIENTED_EDGE ( 'NONE', *, *, #226, .T. ) ;
#226 = EDGE_CURVE ( 'NONE', #250, #227, #181, .T. ) ;
#227 = VERTEX_POINT ( 'NONE', #172 ) ;
#228 = ORIENTED_EDGE ( 'NONE', *, *, #229, .T. ) ;
#229 = EDGE_CURVE ( 'NONE', #227, #230, #171, .T. ) ;
#230 = VERTEX_POINT ( 'NONE', #28 ) ;
#231 = ORIENTED_EDGE ( 'NONE', *, *, #232, .F. ) ;
#232 = EDGE_CURVE ( 'NONE', #216, #230, #41, .T. ) ;
#233 = ADVANCED_FACE ( 'NONE', ( #46 ), #30, .T. ) ;
#234 = EDGE_LOOP ( 'NONE', ( #235, #236, #238, #239 ) ) ;
#235 = ORIENTED_EDGE ( 'NONE', *, *, #229, .F. ) ;
#236 = ORIENTED_EDGE ( 'NONE', *, *, #237, .T. ) ;
#237 = EDGE_CURVE ( 'NONE', #227, #219, #9, .T. ) ;
#238 = ORIENTED_EDGE ( 'NONE', *, *, #218, .T. ) ;
#239 = ORIENTED_EDGE ( 'NONE', *, *, #232, .T. ) ;
#240 = ADVANCED_FACE ( 'NONE', ( #37 ), #14, .T. ) ;
#241 = MANIFOLD_SOLID_BREP ( 'NONE', #169 ) ;
#242 = ADVANCED_FACE ( 'NONE', ( #77 ), #90, .T. ) ;
#243 = EDGE_LOOP ( 'NONE', ( #244, #248, #251, #217, #220 ) ) ;
#244 = ORIENTED_EDGE ( 'NONE', *, *, #245, .T. ) ;
#245 = EDGE_CURVE ( 'NONE', #246, #247, #95, .T. ) ;
#246 = VERTEX_POINT ( 'NONE', #111 ) ;
#247 = VERTEX_POINT ( 'NONE', #110 ) ;
#248 = ORIENTED_EDGE ( 'NONE', *, *, #249, .T. ) ;
#249 = EDGE_CURVE ( 'NONE', #247, #250, #115, .T. ) ;
#250 = VERTEX_POINT ( 'NONE', #107 ) ;
#251 = ORIENTED_EDGE ( 'NONE', *, *, #215, .F. ) ;
#252 = EDGE_LOOP ( 'NONE', ( #253, #254, #256, #257, #258 ) ) ;
#253 = ORIENTED_EDGE ( 'NONE', *, *, #249, .F. ) ;
#254 = ORIENTED_EDGE ( 'NONE', *, *, #255, .T. ) ;
#255 = EDGE_CURVE ( 'NONE', #247, #246, #109, .T. ) ;
#256 = ORIENTED_EDGE ( 'NONE', *, *, #221, .T. ) ;
#257 = ORIENTED_EDGE ( 'NONE', *, *, #237, .F. ) ;
#258 = ORIENTED_EDGE ( 'NONE', *, *, #226, .F. ) ;
#259 = ADVANCED_FACE ( 'NONE', ( #119 ), #137, .F. ) ;
#260 = EDGE_LOOP ( 'NONE', ( #261, #168 ) ) ;
#261 = ORIENTED_EDGE ( 'NONE', *, *, #245, .F. ) ;
ENDSEC;
END-ISO-10303-21;
