ISO-10303-21;
HEADER;
FILE_DESCRIPTION (( 'STEP AP203' ),
    '1' );
FILE_NAME ('Web Model 64145.STEP',
    '2017-01-31T19:05:44',
    ( '' ),
    ( '' ),
    'SwSTEP 2.0',
    'SolidWorks 2016',
    '' );
FILE_SCHEMA (( 'CONFIG_CONTROL_DESIGN' ));
ENDSEC;

DATA;
#1 = CARTESIAN_POINT ( 'NONE',  ( -12.50000000000000000, 0.0000000000000000000, 3.000000000000000000 ) ) ;
#2 =( GEOMETRIC_REPRESENTATION_CONTEXT ( 3 ) GLOBAL_UNCERTAINTY_ASSIGNED_CONTEXT ( ( #100 ) ) GLOBAL_UNIT_ASSIGNED_CONTEXT ( ( #138, #24, #143 ) ) REPRESENTATION_CONTEXT ( 'NONE', 'WORKASPACE' ) );
#3 = PERSON_AND_ORGANIZATION_ROLE ( 'classification_officer' ) ;
#4 = LOCAL_TIME ( 14, 5, 44.00000000000000000, #42 ) ;
#5 = EDGE_CURVE ( 'NONE', #87, #70, #137, .T. ) ;
#6 = ORIENTED_EDGE ( 'NONE', *, *, #112, .F. ) ;
#7 = CC_DESIGN_APPROVAL ( #133, ( #98 ) ) ;
#8 = SECURITY_CLASSIFICATION ( '', '', #13 ) ;
#9 = DIRECTION ( 'NONE',  ( 0.0000000000000000000, 0.0000000000000000000, 1.000000000000000000 ) ) ;
#10 = APPLICATION_CONTEXT ( 'configuration controlled 3d designs of mechanical parts and assemblies' ) ;
#11 = CC_DESIGN_PERSON_AND_ORGANIZATION_ASSIGNMENT ( #23, #86, ( #104 ) ) ;
#12 = APPROVAL_PERSON_ORGANIZATION ( #44, #48, #72 ) ;
#13 = SECURITY_CLASSIFICATION_LEVEL ( 'unclassified' ) ;
#14 = APPROVAL_STATUS ( 'not_yet_approved' ) ;
#15 = COORDINATED_UNIVERSAL_TIME_OFFSET ( 5, 0, .BEHIND. ) ;
#16 = APPROVAL_DATE_TIME ( #74, #133 ) ;
#17 = CALENDAR_DATE ( 2017, 31, 1 ) ;
#18 = CARTESIAN_POINT ( 'NONE',  ( 12.50000000000000000, 1.530808498934191500E-015, 3.000000000000000000 ) ) ;
#19 = CALENDAR_DATE ( 2017, 31, 1 ) ;
#20 = DIRECTION ( 'NONE',  ( 0.0000000000000000000, 0.0000000000000000000, 1.000000000000000000 ) ) ;
#21 = CARTESIAN_POINT ( 'NONE',  ( 0.0000000000000000000, 0.0000000000000000000, 3.000000000000000000 ) ) ;
#22 = ADVANCED_FACE ( 'NONE', ( #47 ), #145, .T. ) ;
#23 = PERSON_AND_ORGANIZATION ( #78, #117 ) ;
#24 =( NAMED_UNIT ( * ) PLANE_ANGLE_UNIT ( ) SI_UNIT ( $, .RADIAN. ) );
#25 = ORIENTED_EDGE ( 'NONE', *, *, #77, .T. ) ;
#26 = EDGE_CURVE ( 'NONE', #157, #70, #128, .T. ) ;
#27 = APPROVAL_PERSON_ORGANIZATION ( #49, #79, #142 ) ;
#28 = ORIENTED_EDGE ( 'NONE', *, *, #102, .T. ) ;
#29 = DATE_TIME_ROLE ( 'classification_date' ) ;
#30 = APPLICATION_PROTOCOL_DEFINITION ( 'international standard', 'config_control_design', 1994, #103 ) ;
#31 = ORIENTED_EDGE ( 'NONE', *, *, #26, .F. ) ;
#32 = PRODUCT ( 'Web Model 64145', 'Web Model 64145', '', ( #114 ) ) ;
#33 = APPROVAL_DATE_TIME ( #146, #48 ) ;
#34 = CYLINDRICAL_SURFACE ( 'NONE', #108, 12.50000000000000000 ) ;
#35 = ORIENTED_EDGE ( 'NONE', *, *, #5, .T. ) ;
#36 = CC_DESIGN_APPROVAL ( #48, ( #104 ) ) ;
#37 = ORIENTED_EDGE ( 'NONE', *, *, #102, .F. ) ;
#38 = CARTESIAN_POINT ( 'NONE',  ( 12.50000000000000000, 1.530808498934191500E-015, 3.000000000000000000 ) ) ;
#39 = DIRECTION ( 'NONE',  ( 1.000000000000000000, 0.0000000000000000000, 0.0000000000000000000 ) ) ;
#40 = PRODUCT_RELATED_PRODUCT_CATEGORY ( 'detail', '', ( #32 ) ) ;
#41 = AXIS2_PLACEMENT_3D ( 'NONE', #67, #9, #113 ) ;
#42 = COORDINATED_UNIVERSAL_TIME_OFFSET ( 5, 0, .BEHIND. ) ;
#43 = PERSON_AND_ORGANIZATION_ROLE ( 'creator' ) ;
#44 = PERSON_AND_ORGANIZATION ( #78, #117 ) ;
#45 = APPROVAL_STATUS ( 'not_yet_approved' ) ;
#46 = CIRCLE ( 'NONE', #159, 12.50000000000000000 ) ;
#47 = FACE_OUTER_BOUND ( 'NONE', #160, .T. ) ;
#48 = APPROVAL ( #62, 'UNSPECIFIED' ) ;
#49 = PERSON_AND_ORGANIZATION ( #78, #117 ) ;
#50 = CC_DESIGN_APPROVAL ( #79, ( #8 ) ) ;
#51 = DIRECTION ( 'NONE',  ( 0.0000000000000000000, 0.0000000000000000000, 1.000000000000000000 ) ) ;
#52 = AXIS2_PLACEMENT_3D ( 'NONE', #171, #111, #124 ) ;
#53 = CARTESIAN_POINT ( 'NONE',  ( 0.0000000000000000000, 0.0000000000000000000, 0.0000000000000000000 ) ) ;
#54 = COORDINATED_UNIVERSAL_TIME_OFFSET ( 5, 0, .BEHIND. ) ;
#55 = AXIS2_PLACEMENT_3D ( 'NONE', #94, #51, #164 ) ;
#56 = CARTESIAN_POINT ( 'NONE',  ( 0.0000000000000000000, 0.0000000000000000000, 0.0000000000000000000 ) ) ;
#57 = LOCAL_TIME ( 14, 5, 44.00000000000000000, #99 ) ;
#58 = ORIENTED_EDGE ( 'NONE', *, *, #26, .T. ) ;
#59 = APPROVAL_ROLE ( '' ) ;
#60 = EDGE_CURVE ( 'NONE', #87, #175, #121, .T. ) ;
#61 = CC_DESIGN_DATE_AND_TIME_ASSIGNMENT ( #95, #139, ( #98 ) ) ;
#62 = APPROVAL_STATUS ( 'not_yet_approved' ) ;
#63 = CC_DESIGN_PERSON_AND_ORGANIZATION_ASSIGNMENT ( #166, #155, ( #104 ) ) ;
#64 = LOCAL_TIME ( 14, 5, 44.00000000000000000, #54 ) ;
#65 = CIRCLE ( 'NONE', #89, 12.50000000000000000 ) ;
#66 = EDGE_LOOP ( 'NONE', ( #167, #35, #28, #6 ) ) ;
#67 = CARTESIAN_POINT ( 'NONE',  ( 0.0000000000000000000, 0.0000000000000000000, 0.0000000000000000000 ) ) ;
#68 = CARTESIAN_POINT ( 'NONE',  ( 0.0000000000000000000, 0.0000000000000000000, 0.0000000000000000000 ) ) ;
#69 = DIRECTION ( 'NONE',  ( 0.0000000000000000000, 0.0000000000000000000, 1.000000000000000000 ) ) ;
#70 = VERTEX_POINT ( 'NONE', #152 ) ;
#71 = DIRECTION ( 'NONE',  ( 0.0000000000000000000, 0.0000000000000000000, 1.000000000000000000 ) ) ;
#72 = APPROVAL_ROLE ( '' ) ;
#73 = CYLINDRICAL_SURFACE ( 'NONE', #52, 12.50000000000000000 ) ;
#74 = DATE_AND_TIME ( #115, #4 ) ;
#75 = VECTOR ( 'NONE', #122, 1000.000000000000000 ) ;
#76 = AXIS2_PLACEMENT_3D ( 'NONE', #109, #80, #162 ) ;
#77 = EDGE_CURVE ( 'NONE', #175, #87, #65, .T. ) ;
#78 = PERSON ( 'UNSPECIFIED', 'UNSPECIFIED', 'UNSPECIFIED', ('UNSPECIFIED'), ('UNSPECIFIED'), ('UNSPECIFIED') ) ;
#79 = APPROVAL ( #45, 'UNSPECIFIED' ) ;
#80 = DIRECTION ( 'NONE',  ( 0.0000000000000000000, 0.0000000000000000000, 1.000000000000000000 ) ) ;
#81 = CC_DESIGN_PERSON_AND_ORGANIZATION_ASSIGNMENT ( #119, #154, ( #32 ) ) ;
#82 = APPROVAL_PERSON_ORGANIZATION ( #151, #133, #59 ) ;
#83 = AXIS2_PLACEMENT_3D ( 'NONE', #53, #20, #92 ) ;
#84 = ADVANCED_FACE ( 'NONE', ( #149 ), #90, .F. ) ;
#85 = FACE_OUTER_BOUND ( 'NONE', #66, .T. ) ;
#86 = PERSON_AND_ORGANIZATION_ROLE ( 'design_supplier' ) ;
#87 = VERTEX_POINT ( 'NONE', #18 ) ;
#88 = PERSON_AND_ORGANIZATION ( #78, #117 ) ;
#89 = AXIS2_PLACEMENT_3D ( 'NONE', #21, #69, #96 ) ;
#90 = PLANE ( 'NONE',  #41 ) ;
#91 = SHAPE_DEFINITION_REPRESENTATION ( #129, #156 ) ;
#92 = DIRECTION ( 'NONE',  ( 1.000000000000000000, 0.0000000000000000000, 0.0000000000000000000 ) ) ;
#93 = CC_DESIGN_PERSON_AND_ORGANIZATION_ASSIGNMENT ( #140, #3, ( #8 ) ) ;
#94 = CARTESIAN_POINT ( 'NONE',  ( 0.0000000000000000000, 0.0000000000000000000, 3.000000000000000000 ) ) ;
#95 = DATE_AND_TIME ( #19, #64 ) ;
#96 = DIRECTION ( 'NONE',  ( 1.000000000000000000, 0.0000000000000000000, 0.0000000000000000000 ) ) ;
#97 = DIRECTION ( 'NONE',  ( -0.0000000000000000000, -0.0000000000000000000, -1.000000000000000000 ) ) ;
#98 = PRODUCT_DEFINITION ( 'UNKNOWN', '', #104, #135 ) ;
#99 = COORDINATED_UNIVERSAL_TIME_OFFSET ( 5, 0, .BEHIND. ) ;
#100 = UNCERTAINTY_MEASURE_WITH_UNIT (LENGTH_MEASURE( 1.000000000000000100E-005 ), #138, 'distance_accuracy_value', 'NONE');
#101 = CARTESIAN_POINT ( 'NONE',  ( -12.50000000000000000, 0.0000000000000000000, 0.0000000000000000000 ) ) ;
#102 = EDGE_CURVE ( 'NONE', #70, #157, #46, .T. ) ;
#103 = APPLICATION_CONTEXT ( 'configuration controlled 3d designs of mechanical parts and assemblies' ) ;
#104 = PRODUCT_DEFINITION_FORMATION_WITH_SPECIFIED_SOURCE ( 'ANY', '', #32, .NOT_KNOWN. ) ;
#105 = EDGE_LOOP ( 'NONE', ( #125, #163, #170, #58 ) ) ;
#106 = APPROVAL_DATE_TIME ( #132, #79 ) ;
#107 = EDGE_LOOP ( 'NONE', ( #31, #37 ) ) ;
#108 = AXIS2_PLACEMENT_3D ( 'NONE', #153, #97, #148 ) ;
#109 = CARTESIAN_POINT ( 'NONE',  ( 0.0000000000000000000, 0.0000000000000000000, 3.000000000000000000 ) ) ;
#110 = CALENDAR_DATE ( 2017, 31, 1 ) ;
#111 = DIRECTION ( 'NONE',  ( -0.0000000000000000000, -0.0000000000000000000, -1.000000000000000000 ) ) ;
#112 = EDGE_CURVE ( 'NONE', #175, #157, #141, .T. ) ;
#113 = DIRECTION ( 'NONE',  ( 1.000000000000000000, 0.0000000000000000000, -0.0000000000000000000 ) ) ;
#114 = MECHANICAL_CONTEXT ( 'NONE', #103, 'mechanical' ) ;
#115 = CALENDAR_DATE ( 2017, 31, 1 ) ;
#116 = CC_DESIGN_SECURITY_CLASSIFICATION ( #8, ( #104 ) ) ;
#117 = ORGANIZATION ( 'UNSPECIFIED', 'UNSPECIFIED', '' ) ;
#118 = CC_DESIGN_PERSON_AND_ORGANIZATION_ASSIGNMENT ( #88, #43, ( #98 ) ) ;
#119 = PERSON_AND_ORGANIZATION ( #78, #117 ) ;
#120 = VECTOR ( 'NONE', #136, 1000.000000000000000 ) ;
#121 = CIRCLE ( 'NONE', #76, 12.50000000000000000 ) ;
#122 = DIRECTION ( 'NONE',  ( -0.0000000000000000000, -0.0000000000000000000, -1.000000000000000000 ) ) ;
#123 = DATE_AND_TIME ( #17, #131 ) ;
#124 = DIRECTION ( 'NONE',  ( -1.000000000000000000, 0.0000000000000000000, 0.0000000000000000000 ) ) ;
#125 = ORIENTED_EDGE ( 'NONE', *, *, #5, .F. ) ;
#126 = AXIS2_PLACEMENT_3D ( 'NONE', #68, #71, #130 ) ;
#127 = ADVANCED_FACE ( 'NONE', ( #85 ), #34, .T. ) ;
#128 = CIRCLE ( 'NONE', #83, 12.50000000000000000 ) ;
#129 = PRODUCT_DEFINITION_SHAPE ( 'NONE', 'NONE',  #98 ) ;
#130 = DIRECTION ( 'NONE',  ( 1.000000000000000000, 0.0000000000000000000, 0.0000000000000000000 ) ) ;
#131 = LOCAL_TIME ( 14, 5, 44.00000000000000000, #168 ) ;
#132 = DATE_AND_TIME ( #174, #158 ) ;
#133 = APPROVAL ( #14, 'UNSPECIFIED' ) ;
#134 = ADVANCED_FACE ( 'NONE', ( #169 ), #73, .T. ) ;
#135 = DESIGN_CONTEXT ( 'detailed design', #10, 'design' ) ;
#136 = DIRECTION ( 'NONE',  ( -0.0000000000000000000, -0.0000000000000000000, -1.000000000000000000 ) ) ;
#137 = LINE ( 'NONE', #38, #75 ) ;
#138 =( LENGTH_UNIT ( ) NAMED_UNIT ( * ) SI_UNIT ( .MILLI., .METRE. ) );
#139 = DATE_TIME_ROLE ( 'creation_date' ) ;
#140 = PERSON_AND_ORGANIZATION ( #78, #117 ) ;
#141 = LINE ( 'NONE', #172, #120 ) ;
#142 = APPROVAL_ROLE ( '' ) ;
#143 =( NAMED_UNIT ( * ) SI_UNIT ( $, .STERADIAN. ) SOLID_ANGLE_UNIT ( ) );
#144 = CLOSED_SHELL ( 'NONE', ( #127, #134, #22, #84 ) ) ;
#145 = PLANE ( 'NONE',  #55 ) ;
#146 = DATE_AND_TIME ( #110, #57 ) ;
#147 = DIRECTION ( 'NONE',  ( 0.0000000000000000000, 0.0000000000000000000, 1.000000000000000000 ) ) ;
#148 = DIRECTION ( 'NONE',  ( -1.000000000000000000, 0.0000000000000000000, 0.0000000000000000000 ) ) ;
#149 = FACE_OUTER_BOUND ( 'NONE', #107, .T. ) ;
#150 = ORIENTED_EDGE ( 'NONE', *, *, #60, .T. ) ;
#151 = PERSON_AND_ORGANIZATION ( #78, #117 ) ;
#152 = CARTESIAN_POINT ( 'NONE',  ( 12.50000000000000000, 1.530808498934191500E-015, 0.0000000000000000000 ) ) ;
#153 = CARTESIAN_POINT ( 'NONE',  ( 0.0000000000000000000, 0.0000000000000000000, 3.000000000000000000 ) ) ;
#154 = PERSON_AND_ORGANIZATION_ROLE ( 'design_owner' ) ;
#155 = PERSON_AND_ORGANIZATION_ROLE ( 'creator' ) ;
#156 = ADVANCED_BREP_SHAPE_REPRESENTATION ( 'Web Model 64145', ( #165, #126 ), #2 ) ;
#157 = VERTEX_POINT ( 'NONE', #101 ) ;
#158 = LOCAL_TIME ( 14, 5, 44.00000000000000000, #15 ) ;
#159 = AXIS2_PLACEMENT_3D ( 'NONE', #56, #147, #39 ) ;
#160 = EDGE_LOOP ( 'NONE', ( #25, #150 ) ) ;
#161 = CC_DESIGN_DATE_AND_TIME_ASSIGNMENT ( #123, #29, ( #8 ) ) ;
#162 = DIRECTION ( 'NONE',  ( 1.000000000000000000, 0.0000000000000000000, 0.0000000000000000000 ) ) ;
#163 = ORIENTED_EDGE ( 'NONE', *, *, #77, .F. ) ;
#164 = DIRECTION ( 'NONE',  ( 1.000000000000000000, 0.0000000000000000000, -0.0000000000000000000 ) ) ;
#165 = MANIFOLD_SOLID_BREP ( 'Extrude1', #144 ) ;
#166 = PERSON_AND_ORGANIZATION ( #78, #117 ) ;
#167 = ORIENTED_EDGE ( 'NONE', *, *, #60, .F. ) ;
#168 = COORDINATED_UNIVERSAL_TIME_OFFSET ( 5, 0, .BEHIND. ) ;
#169 = FACE_OUTER_BOUND ( 'NONE', #105, .T. ) ;
#170 = ORIENTED_EDGE ( 'NONE', *, *, #112, .T. ) ;
#171 = CARTESIAN_POINT ( 'NONE',  ( 0.0000000000000000000, 0.0000000000000000000, 3.000000000000000000 ) ) ;
#172 = CARTESIAN_POINT ( 'NONE',  ( -12.50000000000000000, 0.0000000000000000000, 3.000000000000000000 ) ) ;
#173 = APPLICATION_PROTOCOL_DEFINITION ( 'international standard', 'config_control_design', 1994, #10 ) ;
#174 = CALENDAR_DATE ( 2017, 31, 1 ) ;
#175 = VERTEX_POINT ( 'NONE', #1 ) ;
ENDSEC;
END-ISO-10303-21;
