ISO-10303-21;
HEADER;
FILE_DESCRIPTION (( 'STEP AP203' ),
    '1' );
FILE_NAME ('step_35947.step',
    '2017-05-22T20:26:26',
    ( '' ),
    ( '' ),
    'SwSTEP 2.0',
    'SolidWorks 2016',
    '' );
FILE_SCHEMA (( 'CONFIG_CONTROL_DESIGN' ));
ENDSEC;

DATA;
#1 = DIRECTION ( 'NONE',  ( -0.0000000000000000000, -0.0000000000000000000, -1.000000000000000000 ) ) ;
#2 = CC_DESIGN_SECURITY_CLASSIFICATION ( #13, ( #38 ) ) ;
#3 = MANIFOLD_SOLID_BREP ( 'Boss-Extrude1', #199 ) ;
#4 = CC_DESIGN_APPROVAL ( #6, ( #13 ) ) ;
#5 = CARTESIAN_POINT ( 'NONE',  ( 25.00000000000000400, -37.50000000000001400, 1.000000000000000000 ) ) ;
#6 = APPROVAL ( #151, 'UNSPECIFIED' ) ;
#7 = CC_DESIGN_DATE_AND_TIME_ASSIGNMENT ( #22, #154, ( #13 ) ) ;
#8 = APPROVAL_DATE_TIME ( #9, #6 ) ;
#9 = DATE_AND_TIME ( #10, #12 ) ;
#10 = CALENDAR_DATE ( 2017, 22, 5 ) ;
#11 = CC_DESIGN_PERSON_AND_ORGANIZATION_ASSIGNMENT ( #26, #166, ( #13 ) ) ;
#12 = LOCAL_TIME ( 13, 26, 26.00000000000000000, #17 ) ;
#13 = SECURITY_CLASSIFICATION ( '', '', #167 ) ;
#14 = CARTESIAN_POINT ( 'NONE',  ( 24.99999999999999600, 37.49999999999999300, 0.0000000000000000000 ) ) ;
#15 = DIRECTION ( 'NONE',  ( 1.000000000000000000, 0.0000000000000000000, 0.0000000000000000000 ) ) ;
#16 = CC_DESIGN_PERSON_AND_ORGANIZATION_ASSIGNMENT ( #30, #82, ( #38 ) ) ;
#17 = COORDINATED_UNIVERSAL_TIME_OFFSET ( 7, 0, .BEHIND. ) ;
#18 = APPROVAL_PERSON_ORGANIZATION ( #19, #6, #150 ) ;
#19 = PERSON_AND_ORGANIZATION ( #178, #114 ) ;
#20 = CC_DESIGN_PERSON_AND_ORGANIZATION_ASSIGNMENT ( #31, #144, ( #38 ) ) ;
#21 = DIRECTION ( 'NONE',  ( 1.000000000000000000, 0.0000000000000000000, 0.0000000000000000000 ) ) ;
#22 = DATE_AND_TIME ( #23, #24 ) ;
#23 = CALENDAR_DATE ( 2017, 22, 5 ) ;
#24 = LOCAL_TIME ( 13, 26, 26.00000000000000000, #25 ) ;
#25 = COORDINATED_UNIVERSAL_TIME_OFFSET ( 7, 0, .BEHIND. ) ;
#26 = PERSON_AND_ORGANIZATION ( #178, #114 ) ;
#27 = CC_DESIGN_APPROVAL ( #35, ( #38 ) ) ;
#28 = DIRECTION ( 'NONE',  ( -9.251858538542970300E-017, 1.000000000000000000, -0.0000000000000000000 ) ) ;
#29 = CARTESIAN_POINT ( 'NONE',  ( 24.99999999999999600, 37.49999999999999300, 0.0000000000000000000 ) ) ;
#30 = PERSON_AND_ORGANIZATION ( #178, #114 ) ;
#31 = PERSON_AND_ORGANIZATION ( #178, #114 ) ;
#32 = APPROVAL_DATE_TIME ( #34, #35 ) ;
#33 = CARTESIAN_POINT ( 'NONE',  ( -24.99999999999999300, -37.50000000000001400, 0.0000000000000000000 ) ) ;
#34 = DATE_AND_TIME ( #36, #41 ) ;
#35 = APPROVAL ( #75, 'UNSPECIFIED' ) ;
#36 = CALENDAR_DATE ( 2017, 22, 5 ) ;
#37 = PLANE ( 'NONE',  #215 ) ;
#38 = PRODUCT_DEFINITION_FORMATION_WITH_SPECIFIED_SOURCE ( 'ANY', '', #213, .NOT_KNOWN. ) ;
#39 = ORIENTED_EDGE ( 'NONE', *, *, #233, .T. ) ;
#40 = PLANE ( 'NONE',  #119 ) ;
#41 = LOCAL_TIME ( 13, 26, 26.00000000000000000, #42 ) ;
#42 = COORDINATED_UNIVERSAL_TIME_OFFSET ( 7, 0, .BEHIND. ) ;
#43 = PERSON_AND_ORGANIZATION ( #178, #114 ) ;
#44 = CC_DESIGN_DATE_AND_TIME_ASSIGNMENT ( #56, #164, ( #59 ) ) ;
#45 = CC_DESIGN_PERSON_AND_ORGANIZATION_ASSIGNMENT ( #80, #116, ( #59 ) ) ;
#46 = APPROVAL_PERSON_ORGANIZATION ( #43, #35, #71 ) ;
#47 = CALENDAR_DATE ( 2017, 22, 5 ) ;
#48 = EDGE_LOOP ( 'NONE', ( #161, #231, #155, #198 ) ) ;
#49 = CC_DESIGN_APPROVAL ( #53, ( #59 ) ) ;
#50 = LOCAL_TIME ( 13, 26, 26.00000000000000000, #176 ) ;
#51 = DIRECTION ( 'NONE',  ( 1.000000000000000000, 0.0000000000000000000, 0.0000000000000000000 ) ) ;
#52 = FACE_OUTER_BOUND ( 'NONE', #192, .T. ) ;
#53 = APPROVAL ( #211, 'UNSPECIFIED' ) ;
#54 = DIRECTION ( 'NONE',  ( 0.0000000000000000000, 1.000000000000000000, 0.0000000000000000000 ) ) ;
#55 = APPLICATION_CONTEXT ( 'configuration controlled 3d designs of mechanical parts and assemblies' ) ;
#56 = DATE_AND_TIME ( #47, #50 ) ;
#57 = DIRECTION ( 'NONE',  ( 9.251858538542970300E-017, -1.000000000000000000, 0.0000000000000000000 ) ) ;
#58 = VECTOR ( 'NONE', #89, 1000.000000000000000 ) ;
#59 = PRODUCT_DEFINITION ( 'UNKNOWN', '', #38, #218 ) ;
#60 = COORDINATED_UNIVERSAL_TIME_OFFSET ( 7, 0, .BEHIND. ) ;
#61 = CARTESIAN_POINT ( 'NONE',  ( -24.99999999999999300, -37.50000000000001400, 1.000000000000000000 ) ) ;
#62 = DIRECTION ( 'NONE',  ( -0.0000000000000000000, -0.0000000000000000000, -1.000000000000000000 ) ) ;
#63 = CC_DESIGN_PERSON_AND_ORGANIZATION_ASSIGNMENT ( #229, #219, ( #213 ) ) ;
#64 = DIRECTION ( 'NONE',  ( -1.000000000000000000, -9.251858538542970300E-017, 0.0000000000000000000 ) ) ;
#65 = LINE ( 'NONE', #83, #58 ) ;
#66 = DIRECTION ( 'NONE',  ( -1.000000000000000000, -0.0000000000000000000, -0.0000000000000000000 ) ) ;
#67 = APPLICATION_PROTOCOL_DEFINITION ( 'international standard', 'config_control_design', 1994, #55 ) ;
#68 = AXIS2_PLACEMENT_3D ( 'NONE', #163, #191, #70 ) ;
#69 = CARTESIAN_POINT ( 'NONE',  ( 25.00000000000000400, -37.50000000000001400, 1.000000000000000000 ) ) ;
#70 = DIRECTION ( 'NONE',  ( 1.000000000000000000, 0.0000000000000000000, 0.0000000000000000000 ) ) ;
#71 = APPROVAL_ROLE ( '' ) ;
#72 = EDGE_CURVE ( 'NONE', #147, #184, #91, .T. ) ;
#73 = PLANE ( 'NONE',  #156 ) ;
#74 = DIRECTION ( 'NONE',  ( -9.251858538542970300E-017, 1.000000000000000000, -0.0000000000000000000 ) ) ;
#75 = APPROVAL_STATUS ( 'not_yet_approved' ) ;
#76 = VECTOR ( 'NONE', #28, 1000.000000000000000 ) ;
#77 = CARTESIAN_POINT ( 'NONE',  ( -25.00000000000000000, 37.49999999999999300, 1.000000000000000000 ) ) ;
#78 = CARTESIAN_POINT ( 'NONE',  ( -25.00000000000000000, 37.49999999999999300, 1.000000000000000000 ) ) ;
#79 = ADVANCED_FACE ( 'NONE', ( #225 ), #120, .F. ) ;
#80 = PERSON_AND_ORGANIZATION ( #178, #114 ) ;
#81 = PRODUCT_RELATED_PRODUCT_CATEGORY ( 'detail', '', ( #213 ) ) ;
#82 = PERSON_AND_ORGANIZATION_ROLE ( 'design_supplier' ) ;
#83 = CARTESIAN_POINT ( 'NONE',  ( -25.00000000000000000, 37.49999999999999300, 0.0000000000000000000 ) ) ;
#84 = APPROVAL_DATE_TIME ( #177, #53 ) ;
#85 = CALENDAR_DATE ( 2017, 22, 5 ) ;
#86 = VECTOR ( 'NONE', #1, 1000.000000000000000 ) ;
#87 = VECTOR ( 'NONE', #62, 1000.000000000000000 ) ;
#88 = LINE ( 'NONE', #170, #87 ) ;
#89 = DIRECTION ( 'NONE',  ( 9.251858538542970300E-017, -1.000000000000000000, 0.0000000000000000000 ) ) ;
#90 = ADVANCED_FACE ( 'NONE', ( #52 ), #37, .F. ) ;
#91 = LINE ( 'NONE', #29, #76 ) ;
#92 = SHAPE_DEFINITION_REPRESENTATION ( #221, #203 ) ;
#93 = DIRECTION ( 'NONE',  ( -0.0000000000000000000, 0.0000000000000000000, 1.000000000000000000 ) ) ;
#94 = AXIS2_PLACEMENT_3D ( 'NONE', #108, #64, #98 ) ;
#95 = CARTESIAN_POINT ( 'NONE',  ( -24.99999999999999300, -37.50000000000001400, 1.000000000000000000 ) ) ;
#96 = CARTESIAN_POINT ( 'NONE',  ( 25.00000000000000400, -37.50000000000001400, 0.0000000000000000000 ) ) ;
#97 = CARTESIAN_POINT ( 'NONE',  ( -24.99999999999999300, -37.50000000000001400, 0.0000000000000000000 ) ) ;
#98 = DIRECTION ( 'NONE',  ( 9.251858538542970300E-017, -1.000000000000000000, 0.0000000000000000000 ) ) ;
#99 = EDGE_CURVE ( 'NONE', #204, #193, #126, .T. ) ;
#100 = VERTEX_POINT ( 'NONE', #110 ) ;
#101 = VERTEX_POINT ( 'NONE', #111 ) ;
#102 = VECTOR ( 'NONE', #66, 1000.000000000000000 ) ;
#103 =( GEOMETRIC_REPRESENTATION_CONTEXT ( 3 ) GLOBAL_UNCERTAINTY_ASSIGNED_CONTEXT ( ( #162 ) ) GLOBAL_UNIT_ASSIGNED_CONTEXT ( ( #158, #173, #109 ) ) REPRESENTATION_CONTEXT ( 'NONE', 'WORKASPACE' ) );
#104 = ORIENTED_EDGE ( 'NONE', *, *, #171, .T. ) ;
#105 = LINE ( 'NONE', #95, #142 ) ;
#106 = ADVANCED_FACE ( 'NONE', ( #131 ), #40, .F. ) ;
#107 = LINE ( 'NONE', #69, #153 ) ;
#108 = CARTESIAN_POINT ( 'NONE',  ( 24.99999999999999600, 37.49999999999999300, 1.000000000000000000 ) ) ;
#109 =( NAMED_UNIT ( * ) SI_UNIT ( $, .STERADIAN. ) SOLID_ANGLE_UNIT ( ) );
#110 = CARTESIAN_POINT ( 'NONE',  ( -25.00000000000000000, 37.49999999999999300, 0.0000000000000000000 ) ) ;
#111 = CARTESIAN_POINT ( 'NONE',  ( 24.99999999999999600, 37.49999999999999300, 1.000000000000000000 ) ) ;
#112 = VECTOR ( 'NONE', #57, 1000.000000000000000 ) ;
#113 = ORIENTED_EDGE ( 'NONE', *, *, #72, .T. ) ;
#114 = ORGANIZATION ( 'UNSPECIFIED', 'UNSPECIFIED', '' ) ;
#115 = LINE ( 'NONE', #97, #123 ) ;
#116 = PERSON_AND_ORGANIZATION_ROLE ( 'creator' ) ;
#117 = ADVANCED_FACE ( 'NONE', ( #207 ), #137, .F. ) ;
#118 = CARTESIAN_POINT ( 'NONE',  ( 24.99999999999999600, 37.49999999999999300, 1.000000000000000000 ) ) ;
#119 = AXIS2_PLACEMENT_3D ( 'NONE', #77, #208, #130 ) ;
#120 = PLANE ( 'NONE',  #228 ) ;
#121 = LINE ( 'NONE', #78, #112 ) ;
#122 = VECTOR ( 'NONE', #74, 1000.000000000000000 ) ;
#123 = VECTOR ( 'NONE', #21, 1000.000000000000000 ) ;
#124 = EDGE_CURVE ( 'NONE', #101, #201, #134, .T. ) ;
#125 = LINE ( 'NONE', #118, #122 ) ;
#126 = LINE ( 'NONE', #182, #152 ) ;
#127 = FACE_OUTER_BOUND ( 'NONE', #183, .T. ) ;
#128 = CARTESIAN_POINT ( 'NONE',  ( -25.00000000000000000, 37.49999999999999300, 1.000000000000000000 ) ) ;
#129 = EDGE_CURVE ( 'NONE', #201, #100, #139, .T. ) ;
#130 = DIRECTION ( 'NONE',  ( 0.0000000000000000000, -0.0000000000000000000, -1.000000000000000000 ) ) ;
#131 = FACE_OUTER_BOUND ( 'NONE', #48, .T. ) ;
#132 = APPROVAL_ROLE ( '' ) ;
#133 = CARTESIAN_POINT ( 'NONE',  ( 0.0000000000000000000, 0.0000000000000000000, 0.0000000000000000000 ) ) ;
#134 = LINE ( 'NONE', #128, #230 ) ;
#135 = ORIENTED_EDGE ( 'NONE', *, *, #168, .T. ) ;
#136 = DIRECTION ( 'NONE',  ( -9.251858538542970300E-017, 1.000000000000000000, 0.0000000000000000000 ) ) ;
#137 = PLANE ( 'NONE',  #149 ) ;
#138 = CARTESIAN_POINT ( 'NONE',  ( 0.0000000000000000000, 0.0000000000000000000, 1.000000000000000000 ) ) ;
#139 = LINE ( 'NONE', #205, #86 ) ;
#140 = ORIENTED_EDGE ( 'NONE', *, *, #232, .T. ) ;
#141 = ORIENTED_EDGE ( 'NONE', *, *, #226, .F. ) ;
#142 = VECTOR ( 'NONE', #187, 1000.000000000000000 ) ;
#143 = CARTESIAN_POINT ( 'NONE',  ( -25.00000000000000000, 37.49999999999999300, 1.000000000000000000 ) ) ;
#144 = PERSON_AND_ORGANIZATION_ROLE ( 'creator' ) ;
#145 = CARTESIAN_POINT ( 'NONE',  ( -25.00000000000000000, 37.49999999999999300, 0.0000000000000000000 ) ) ;
#146 = FACE_OUTER_BOUND ( 'NONE', #224, .T. ) ;
#147 = VERTEX_POINT ( 'NONE', #96 ) ;
#148 = ADVANCED_FACE ( 'NONE', ( #146 ), #73, .T. ) ;
#149 = AXIS2_PLACEMENT_3D ( 'NONE', #133, #194, #51 ) ;
#150 = APPROVAL_ROLE ( '' ) ;
#151 = APPROVAL_STATUS ( 'not_yet_approved' ) ;
#152 = VECTOR ( 'NONE', #15, 1000.000000000000000 ) ;
#153 = VECTOR ( 'NONE', #175, 1000.000000000000000 ) ;
#154 = DATE_TIME_ROLE ( 'classification_date' ) ;
#155 = ORIENTED_EDGE ( 'NONE', *, *, #124, .F. ) ;
#156 = AXIS2_PLACEMENT_3D ( 'NONE', #138, #93, #210 ) ;
#157 = LINE ( 'NONE', #145, #102 ) ;
#158 =( LENGTH_UNIT ( ) NAMED_UNIT ( * ) SI_UNIT ( .MILLI., .METRE. ) );
#159 = LOCAL_TIME ( 13, 26, 26.00000000000000000, #60 ) ;
#160 = EDGE_LOOP ( 'NONE', ( #196, #190, #195, #188 ) ) ;
#161 = ORIENTED_EDGE ( 'NONE', *, *, #206, .T. ) ;
#162 = UNCERTAINTY_MEASURE_WITH_UNIT (LENGTH_MEASURE( 1.000000000000000100E-005 ), #158, 'distance_accuracy_value', 'NONE');
#163 = CARTESIAN_POINT ( 'NONE',  ( 0.0000000000000000000, 0.0000000000000000000, 0.0000000000000000000 ) ) ;
#164 = DATE_TIME_ROLE ( 'creation_date' ) ;
#165 = PERSON_AND_ORGANIZATION ( #178, #114 ) ;
#166 = PERSON_AND_ORGANIZATION_ROLE ( 'classification_officer' ) ;
#167 = SECURITY_CLASSIFICATION_LEVEL ( 'unclassified' ) ;
#168 = EDGE_CURVE ( 'NONE', #204, #180, #105, .T. ) ;
#169 = ORIENTED_EDGE ( 'NONE', *, *, #233, .F. ) ;
#170 = CARTESIAN_POINT ( 'NONE',  ( 24.99999999999999600, 37.49999999999999300, 1.000000000000000000 ) ) ;
#171 = EDGE_CURVE ( 'NONE', #193, #147, #107, .T. ) ;
#172 = ORIENTED_EDGE ( 'NONE', *, *, #99, .F. ) ;
#173 =( NAMED_UNIT ( * ) PLANE_ANGLE_UNIT ( ) SI_UNIT ( $, .RADIAN. ) );
#174 = ORIENTED_EDGE ( 'NONE', *, *, #202, .F. ) ;
#175 = DIRECTION ( 'NONE',  ( -0.0000000000000000000, -0.0000000000000000000, -1.000000000000000000 ) ) ;
#176 = COORDINATED_UNIVERSAL_TIME_OFFSET ( 7, 0, .BEHIND. ) ;
#177 = DATE_AND_TIME ( #85, #159 ) ;
#178 = PERSON ( 'UNSPECIFIED', 'UNSPECIFIED', 'UNSPECIFIED', ('UNSPECIFIED'), ('UNSPECIFIED'), ('UNSPECIFIED') ) ;
#179 = ORIENTED_EDGE ( 'NONE', *, *, #129, .T. ) ;
#180 = VERTEX_POINT ( 'NONE', #33 ) ;
#181 = ADVANCED_FACE ( 'NONE', ( #127 ), #222, .F. ) ;
#182 = CARTESIAN_POINT ( 'NONE',  ( -24.99999999999999300, -37.50000000000001400, 1.000000000000000000 ) ) ;
#183 = EDGE_LOOP ( 'NONE', ( #113, #141, #174, #104 ) ) ;
#184 = VERTEX_POINT ( 'NONE', #14 ) ;
#185 = DIRECTION ( 'NONE',  ( -1.000000000000000000, -0.0000000000000000000, -0.0000000000000000000 ) ) ;
#186 = ORIENTED_EDGE ( 'NONE', *, *, #171, .F. ) ;
#187 = DIRECTION ( 'NONE',  ( -0.0000000000000000000, -0.0000000000000000000, -1.000000000000000000 ) ) ;
#188 = ORIENTED_EDGE ( 'NONE', *, *, #232, .F. ) ;
#189 = DIRECTION ( 'NONE',  ( 1.000000000000000000, 9.251858538542970300E-017, -0.0000000000000000000 ) ) ;
#190 = ORIENTED_EDGE ( 'NONE', *, *, #206, .F. ) ;
#191 = DIRECTION ( 'NONE',  ( 0.0000000000000000000, 0.0000000000000000000, 1.000000000000000000 ) ) ;
#192 = EDGE_LOOP ( 'NONE', ( #214, #209, #169, #179 ) ) ;
#193 = VERTEX_POINT ( 'NONE', #5 ) ;
#194 = DIRECTION ( 'NONE',  ( -0.0000000000000000000, 0.0000000000000000000, 1.000000000000000000 ) ) ;
#195 = ORIENTED_EDGE ( 'NONE', *, *, #72, .F. ) ;
#196 = ORIENTED_EDGE ( 'NONE', *, *, #237, .F. ) ;
#197 = ORIENTED_EDGE ( 'NONE', *, *, #202, .T. ) ;
#198 = ORIENTED_EDGE ( 'NONE', *, *, #226, .T. ) ;
#199 = CLOSED_SHELL ( 'NONE', ( #90, #79, #181, #106, #148, #117 ) ) ;
#200 = ORIENTED_EDGE ( 'NONE', *, *, #99, .T. ) ;
#201 = VERTEX_POINT ( 'NONE', #143 ) ;
#202 = EDGE_CURVE ( 'NONE', #193, #101, #125, .T. ) ;
#203 = ADVANCED_BREP_SHAPE_REPRESENTATION ( 'step_35947', ( #3, #68 ), #103 ) ;
#204 = VERTEX_POINT ( 'NONE', #61 ) ;
#205 = CARTESIAN_POINT ( 'NONE',  ( -25.00000000000000000, 37.49999999999999300, 1.000000000000000000 ) ) ;
#206 = EDGE_CURVE ( 'NONE', #184, #100, #157, .T. ) ;
#207 = FACE_OUTER_BOUND ( 'NONE', #160, .T. ) ;
#208 = DIRECTION ( 'NONE',  ( 0.0000000000000000000, -1.000000000000000000, 0.0000000000000000000 ) ) ;
#209 = ORIENTED_EDGE ( 'NONE', *, *, #168, .F. ) ;
#210 = DIRECTION ( 'NONE',  ( 1.000000000000000000, 0.0000000000000000000, 0.0000000000000000000 ) ) ;
#211 = APPROVAL_STATUS ( 'not_yet_approved' ) ;
#212 = APPLICATION_PROTOCOL_DEFINITION ( 'international standard', 'config_control_design', 1994, #216 ) ;
#213 = PRODUCT ( 'step_35947', 'step_35947', '', ( #220 ) ) ;
#214 = ORIENTED_EDGE ( 'NONE', *, *, #237, .T. ) ;
#215 = AXIS2_PLACEMENT_3D ( 'NONE', #234, #189, #136 ) ;
#216 = APPLICATION_CONTEXT ( 'configuration controlled 3d designs of mechanical parts and assemblies' ) ;
#217 = ORIENTED_EDGE ( 'NONE', *, *, #124, .T. ) ;
#218 = DESIGN_CONTEXT ( 'detailed design', #216, 'design' ) ;
#219 = PERSON_AND_ORGANIZATION_ROLE ( 'design_owner' ) ;
#220 = MECHANICAL_CONTEXT ( 'NONE', #55, 'mechanical' ) ;
#221 = PRODUCT_DEFINITION_SHAPE ( 'NONE', 'NONE',  #59 ) ;
#222 = PLANE ( 'NONE',  #94 ) ;
#223 = DIRECTION ( 'NONE',  ( 0.0000000000000000000, -0.0000000000000000000, 1.000000000000000000 ) ) ;
#224 = EDGE_LOOP ( 'NONE', ( #39, #200, #197, #217 ) ) ;
#225 = FACE_OUTER_BOUND ( 'NONE', #235, .T. ) ;
#226 = EDGE_CURVE ( 'NONE', #101, #184, #88, .T. ) ;
#227 = APPROVAL_PERSON_ORGANIZATION ( #165, #53, #132 ) ;
#228 = AXIS2_PLACEMENT_3D ( 'NONE', #236, #54, #223 ) ;
#229 = PERSON_AND_ORGANIZATION ( #178, #114 ) ;
#230 = VECTOR ( 'NONE', #185, 1000.000000000000000 ) ;
#231 = ORIENTED_EDGE ( 'NONE', *, *, #129, .F. ) ;
#232 = EDGE_CURVE ( 'NONE', #180, #147, #115, .T. ) ;
#233 = EDGE_CURVE ( 'NONE', #201, #204, #121, .T. ) ;
#234 = CARTESIAN_POINT ( 'NONE',  ( -25.00000000000000000, 37.49999999999999300, 1.000000000000000000 ) ) ;
#235 = EDGE_LOOP ( 'NONE', ( #140, #186, #172, #135 ) ) ;
#236 = CARTESIAN_POINT ( 'NONE',  ( -24.99999999999999300, -37.50000000000001400, 1.000000000000000000 ) ) ;
#237 = EDGE_CURVE ( 'NONE', #100, #180, #65, .T. ) ;
ENDSEC;
END-ISO-10303-21;
