ISO-10303-21;
HEADER;
FILE_DESCRIPTION (( 'STEP AP203' ),
    '1' );
FILE_NAME ('Web Model 68511.STEP',
    '2017-02-01T13:24:49',
    ( '' ),
    ( '' ),
    'SwSTEP 2.0',
    'SolidWorks 2016',
    '' );
FILE_SCHEMA (( 'CONFIG_CONTROL_DESIGN' ));
ENDSEC;

DATA;
#1 = ORIENTED_EDGE ( 'NONE', *, *, #41, .F. ) ;
#2 = CC_DESIGN_APPROVAL ( #117, ( #24 ) ) ;
#3 = PERSON_AND_ORGANIZATION_ROLE ( 'creator' ) ;
#4 = AXIS2_PLACEMENT_3D ( 'NONE', #133, #131, #5 ) ;
#5 = DIRECTION ( 'NONE',  ( 1.000000000000000000, 0.0000000000000000000, 0.0000000000000000000 ) ) ;
#6 = CYLINDRICAL_SURFACE ( 'NONE', #140, 6.250000000000000000 ) ;
#7 = CC_DESIGN_PERSON_AND_ORGANIZATION_ASSIGNMENT ( #21, #62, ( #103 ) ) ;
#8 = CC_DESIGN_PERSON_AND_ORGANIZATION_ASSIGNMENT ( #44, #3, ( #24 ) ) ;
#9 = CALENDAR_DATE ( 2017, 1, 2 ) ;
#10 = LOCAL_TIME ( 8, 24, 49.00000000000000000, #28 ) ;
#11 = EDGE_CURVE ( 'NONE', #160, #142, #175, .T. ) ;
#12 = AXIS2_PLACEMENT_3D ( 'NONE', #47, #162, #137 ) ;
#13 = FACE_OUTER_BOUND ( 'NONE', #146, .T. ) ;
#14 = UNCERTAINTY_MEASURE_WITH_UNIT (LENGTH_MEASURE( 1.000000000000000100E-005 ), #79, 'distance_accuracy_value', 'NONE');
#15 = PERSON_AND_ORGANIZATION_ROLE ( 'classification_officer' ) ;
#16 = CARTESIAN_POINT ( 'NONE',  ( 0.0000000000000000000, 0.0000000000000000000, 1.000000000000000000 ) ) ;
#17 = PERSON_AND_ORGANIZATION ( #87, #106 ) ;
#18 = DIRECTION ( 'NONE',  ( -0.0000000000000000000, -0.0000000000000000000, -1.000000000000000000 ) ) ;
#19 = EDGE_CURVE ( 'NONE', #142, #160, #167, .T. ) ;
#20 = DATE_AND_TIME ( #171, #31 ) ;
#21 = PERSON_AND_ORGANIZATION ( #87, #106 ) ;
#22 = PRODUCT_DEFINITION_SHAPE ( 'NONE', 'NONE',  #113 ) ;
#23 = ADVANCED_FACE ( 'NONE', ( #13 ), #76, .T. ) ;
#24 = PRODUCT_DEFINITION_FORMATION_WITH_SPECIFIED_SOURCE ( 'ANY', '', #103, .NOT_KNOWN. ) ;
#25 = APPLICATION_CONTEXT ( 'configuration controlled 3d designs of mechanical parts and assemblies' ) ;
#26 = DATE_TIME_ROLE ( 'classification_date' ) ;
#27 = EDGE_CURVE ( 'NONE', #142, #124, #61, .T. ) ;
#28 = COORDINATED_UNIVERSAL_TIME_OFFSET ( 5, 0, .BEHIND. ) ;
#29 = AXIS2_PLACEMENT_3D ( 'NONE', #144, #169, #109 ) ;
#30 = DIRECTION ( 'NONE',  ( -0.0000000000000000000, -0.0000000000000000000, -1.000000000000000000 ) ) ;
#31 = LOCAL_TIME ( 8, 24, 49.00000000000000000, #101 ) ;
#32 = CARTESIAN_POINT ( 'NONE',  ( 0.0000000000000000000, 0.0000000000000000000, 1.000000000000000000 ) ) ;
#33 = CARTESIAN_POINT ( 'NONE',  ( 0.0000000000000000000, 0.0000000000000000000, 1.000000000000000000 ) ) ;
#34 = APPLICATION_PROTOCOL_DEFINITION ( 'international standard', 'config_control_design', 1994, #97 ) ;
#35 = ORIENTED_EDGE ( 'NONE', *, *, #11, .F. ) ;
#36 = CARTESIAN_POINT ( 'NONE',  ( -6.250000000000000000, 0.0000000000000000000, 1.000000000000000000 ) ) ;
#37 = APPROVAL_ROLE ( '' ) ;
#38 = CARTESIAN_POINT ( 'NONE',  ( -6.250000000000000000, 0.0000000000000000000, 0.0000000000000000000 ) ) ;
#39 = ADVANCED_FACE ( 'NONE', ( #105 ), #6, .T. ) ;
#40 = LINE ( 'NONE', #134, #68 ) ;
#41 = EDGE_CURVE ( 'NONE', #124, #108, #74, .T. ) ;
#42 = PERSON_AND_ORGANIZATION ( #87, #106 ) ;
#43 = AXIS2_PLACEMENT_3D ( 'NONE', #141, #69, #45 ) ;
#44 = PERSON_AND_ORGANIZATION ( #87, #106 ) ;
#45 = DIRECTION ( 'NONE',  ( 1.000000000000000000, 0.0000000000000000000, 0.0000000000000000000 ) ) ;
#46 = CARTESIAN_POINT ( 'NONE',  ( 0.0000000000000000000, 0.0000000000000000000, 1.000000000000000000 ) ) ;
#47 = CARTESIAN_POINT ( 'NONE',  ( 0.0000000000000000000, 0.0000000000000000000, 0.0000000000000000000 ) ) ;
#48 = ORIENTED_EDGE ( 'NONE', *, *, #174, .F. ) ;
#49 = EDGE_CURVE ( 'NONE', #108, #124, #81, .T. ) ;
#50 = AXIS2_PLACEMENT_3D ( 'NONE', #16, #30, #132 ) ;
#51 = APPROVAL_PERSON_ORGANIZATION ( #17, #117, #153 ) ;
#52 = APPROVAL_STATUS ( 'not_yet_approved' ) ;
#53 = PERSON_AND_ORGANIZATION ( #87, #106 ) ;
#54 = ORIENTED_EDGE ( 'NONE', *, *, #19, .T. ) ;
#55 = ADVANCED_FACE ( 'NONE', ( #158 ), #73, .F. ) ;
#56 = APPROVAL_DATE_TIME ( #98, #166 ) ;
#57 = CALENDAR_DATE ( 2017, 1, 2 ) ;
#58 = APPROVAL_ROLE ( '' ) ;
#59 = AXIS2_PLACEMENT_3D ( 'NONE', #32, #122, #77 ) ;
#60 = PERSON_AND_ORGANIZATION ( #87, #106 ) ;
#61 = LINE ( 'NONE', #36, #152 ) ;
#62 = PERSON_AND_ORGANIZATION_ROLE ( 'design_owner' ) ;
#63 = APPROVAL ( #52, 'UNSPECIFIED' ) ;
#64 = MANIFOLD_SOLID_BREP ( 'Extrude1', #90 ) ;
#65 = LOCAL_TIME ( 8, 24, 49.00000000000000000, #67 ) ;
#66 = EDGE_LOOP ( 'NONE', ( #48, #75, #96, #155 ) ) ;
#67 = COORDINATED_UNIVERSAL_TIME_OFFSET ( 5, 0, .BEHIND. ) ;
#68 = VECTOR ( 'NONE', #163, 1000.000000000000000 ) ;
#69 = DIRECTION ( 'NONE',  ( 0.0000000000000000000, 0.0000000000000000000, 1.000000000000000000 ) ) ;
#70 = CC_DESIGN_APPROVAL ( #63, ( #113 ) ) ;
#71 = ORIENTED_EDGE ( 'NONE', *, *, #11, .T. ) ;
#72 = CARTESIAN_POINT ( 'NONE',  ( -6.250000000000000000, 0.0000000000000000000, 1.000000000000000000 ) ) ;
#73 = PLANE ( 'NONE',  #29 ) ;
#74 = CIRCLE ( 'NONE', #12, 6.250000000000000000 ) ;
#75 = ORIENTED_EDGE ( 'NONE', *, *, #19, .F. ) ;
#76 = PLANE ( 'NONE',  #104 ) ;
#77 = DIRECTION ( 'NONE',  ( 1.000000000000000000, 0.0000000000000000000, 0.0000000000000000000 ) ) ;
#78 = CARTESIAN_POINT ( 'NONE',  ( 0.0000000000000000000, 0.0000000000000000000, 1.000000000000000000 ) ) ;
#79 =( LENGTH_UNIT ( ) NAMED_UNIT ( * ) SI_UNIT ( .MILLI., .METRE. ) );
#80 = AXIS2_PLACEMENT_3D ( 'NONE', #46, #112, #135 ) ;
#81 = CIRCLE ( 'NONE', #4, 6.250000000000000000 ) ;
#82 = DATE_AND_TIME ( #9, #10 ) ;
#83 = CC_DESIGN_PERSON_AND_ORGANIZATION_ASSIGNMENT ( #53, #126, ( #113 ) ) ;
#84 = ORIENTED_EDGE ( 'NONE', *, *, #27, .F. ) ;
#85 = EDGE_LOOP ( 'NONE', ( #35, #120, #114, #84 ) ) ;
#86 = CC_DESIGN_DATE_AND_TIME_ASSIGNMENT ( #82, #100, ( #113 ) ) ;
#87 = PERSON ( 'UNSPECIFIED', 'UNSPECIFIED', 'UNSPECIFIED', ('UNSPECIFIED'), ('UNSPECIFIED'), ('UNSPECIFIED') ) ;
#88 = PERSON_AND_ORGANIZATION ( #87, #106 ) ;
#89 = APPLICATION_PROTOCOL_DEFINITION ( 'international standard', 'config_control_design', 1994, #25 ) ;
#90 = CLOSED_SHELL ( 'NONE', ( #139, #39, #23, #55 ) ) ;
#91 = CC_DESIGN_PERSON_AND_ORGANIZATION_ASSIGNMENT ( #60, #15, ( #93 ) ) ;
#92 = PERSON_AND_ORGANIZATION ( #87, #106 ) ;
#93 = SECURITY_CLASSIFICATION ( '', '', #128 ) ;
#94 = CALENDAR_DATE ( 2017, 1, 2 ) ;
#95 = DATE_AND_TIME ( #57, #102 ) ;
#96 = ORIENTED_EDGE ( 'NONE', *, *, #27, .T. ) ;
#97 = APPLICATION_CONTEXT ( 'configuration controlled 3d designs of mechanical parts and assemblies' ) ;
#98 = DATE_AND_TIME ( #94, #138 ) ;
#99 = DIRECTION ( 'NONE',  ( -0.0000000000000000000, -0.0000000000000000000, -1.000000000000000000 ) ) ;
#100 = DATE_TIME_ROLE ( 'creation_date' ) ;
#101 = COORDINATED_UNIVERSAL_TIME_OFFSET ( 5, 0, .BEHIND. ) ;
#102 = LOCAL_TIME ( 8, 24, 49.00000000000000000, #136 ) ;
#103 = PRODUCT ( 'Web Model 68511', 'Web Model 68511', '', ( #125 ) ) ;
#104 = AXIS2_PLACEMENT_3D ( 'NONE', #78, #172, #118 ) ;
#105 = FACE_OUTER_BOUND ( 'NONE', #66, .T. ) ;
#106 = ORGANIZATION ( 'UNSPECIFIED', 'UNSPECIFIED', '' ) ;
#107 = APPROVAL_STATUS ( 'not_yet_approved' ) ;
#108 = VERTEX_POINT ( 'NONE', #157 ) ;
#109 = DIRECTION ( 'NONE',  ( 1.000000000000000000, 0.0000000000000000000, -0.0000000000000000000 ) ) ;
#110 =( NAMED_UNIT ( * ) SI_UNIT ( $, .STERADIAN. ) SOLID_ANGLE_UNIT ( ) );
#111 = ORIENTED_EDGE ( 'NONE', *, *, #49, .F. ) ;
#112 = DIRECTION ( 'NONE',  ( 0.0000000000000000000, 0.0000000000000000000, 1.000000000000000000 ) ) ;
#113 = PRODUCT_DEFINITION ( 'UNKNOWN', '', #24, #173 ) ;
#114 = ORIENTED_EDGE ( 'NONE', *, *, #49, .T. ) ;
#115 = DATE_AND_TIME ( #154, #65 ) ;
#116 = CC_DESIGN_DATE_AND_TIME_ASSIGNMENT ( #20, #26, ( #93 ) ) ;
#117 = APPROVAL ( #147, 'UNSPECIFIED' ) ;
#118 = DIRECTION ( 'NONE',  ( 1.000000000000000000, 0.0000000000000000000, -0.0000000000000000000 ) ) ;
#119 = CARTESIAN_POINT ( 'NONE',  ( 6.250000000000000000, 7.654042494670957600E-016, 1.000000000000000000 ) ) ;
#120 = ORIENTED_EDGE ( 'NONE', *, *, #174, .T. ) ;
#121 = CC_DESIGN_SECURITY_CLASSIFICATION ( #93, ( #24 ) ) ;
#122 = DIRECTION ( 'NONE',  ( 0.0000000000000000000, 0.0000000000000000000, 1.000000000000000000 ) ) ;
#123 = FACE_OUTER_BOUND ( 'NONE', #85, .T. ) ;
#124 = VERTEX_POINT ( 'NONE', #38 ) ;
#125 = MECHANICAL_CONTEXT ( 'NONE', #25, 'mechanical' ) ;
#126 = PERSON_AND_ORGANIZATION_ROLE ( 'creator' ) ;
#127 = PERSON_AND_ORGANIZATION_ROLE ( 'design_supplier' ) ;
#128 = SECURITY_CLASSIFICATION_LEVEL ( 'unclassified' ) ;
#129 = APPROVAL_DATE_TIME ( #115, #117 ) ;
#130 = APPROVAL_DATE_TIME ( #95, #63 ) ;
#131 = DIRECTION ( 'NONE',  ( 0.0000000000000000000, 0.0000000000000000000, 1.000000000000000000 ) ) ;
#132 = DIRECTION ( 'NONE',  ( -1.000000000000000000, 0.0000000000000000000, 0.0000000000000000000 ) ) ;
#133 = CARTESIAN_POINT ( 'NONE',  ( 0.0000000000000000000, 0.0000000000000000000, 0.0000000000000000000 ) ) ;
#134 = CARTESIAN_POINT ( 'NONE',  ( 6.250000000000000000, 7.654042494670957600E-016, 1.000000000000000000 ) ) ;
#135 = DIRECTION ( 'NONE',  ( 1.000000000000000000, 0.0000000000000000000, 0.0000000000000000000 ) ) ;
#136 = COORDINATED_UNIVERSAL_TIME_OFFSET ( 5, 0, .BEHIND. ) ;
#137 = DIRECTION ( 'NONE',  ( 1.000000000000000000, 0.0000000000000000000, 0.0000000000000000000 ) ) ;
#138 = LOCAL_TIME ( 8, 24, 49.00000000000000000, #165 ) ;
#139 = ADVANCED_FACE ( 'NONE', ( #123 ), #148, .T. ) ;
#140 = AXIS2_PLACEMENT_3D ( 'NONE', #33, #99, #159 ) ;
#141 = CARTESIAN_POINT ( 'NONE',  ( 0.0000000000000000000, 0.0000000000000000000, 0.0000000000000000000 ) ) ;
#142 = VERTEX_POINT ( 'NONE', #72 ) ;
#143 = CC_DESIGN_APPROVAL ( #166, ( #93 ) ) ;
#144 = CARTESIAN_POINT ( 'NONE',  ( 0.0000000000000000000, 0.0000000000000000000, 0.0000000000000000000 ) ) ;
#145 =( NAMED_UNIT ( * ) PLANE_ANGLE_UNIT ( ) SI_UNIT ( $, .RADIAN. ) );
#146 = EDGE_LOOP ( 'NONE', ( #54, #71 ) ) ;
#147 = APPROVAL_STATUS ( 'not_yet_approved' ) ;
#148 = CYLINDRICAL_SURFACE ( 'NONE', #50, 6.250000000000000000 ) ;
#149 = ADVANCED_BREP_SHAPE_REPRESENTATION ( 'Web Model 68511', ( #64, #43 ), #156 ) ;
#150 = EDGE_LOOP ( 'NONE', ( #1, #111 ) ) ;
#151 = APPROVAL_PERSON_ORGANIZATION ( #92, #166, #58 ) ;
#152 = VECTOR ( 'NONE', #18, 1000.000000000000000 ) ;
#153 = APPROVAL_ROLE ( '' ) ;
#154 = CALENDAR_DATE ( 2017, 1, 2 ) ;
#155 = ORIENTED_EDGE ( 'NONE', *, *, #41, .T. ) ;
#156 =( GEOMETRIC_REPRESENTATION_CONTEXT ( 3 ) GLOBAL_UNCERTAINTY_ASSIGNED_CONTEXT ( ( #14 ) ) GLOBAL_UNIT_ASSIGNED_CONTEXT ( ( #79, #145, #110 ) ) REPRESENTATION_CONTEXT ( 'NONE', 'WORKASPACE' ) );
#157 = CARTESIAN_POINT ( 'NONE',  ( 6.250000000000000000, 7.654042494670957600E-016, 0.0000000000000000000 ) ) ;
#158 = FACE_OUTER_BOUND ( 'NONE', #150, .T. ) ;
#159 = DIRECTION ( 'NONE',  ( -1.000000000000000000, 0.0000000000000000000, 0.0000000000000000000 ) ) ;
#160 = VERTEX_POINT ( 'NONE', #119 ) ;
#161 = CC_DESIGN_PERSON_AND_ORGANIZATION_ASSIGNMENT ( #88, #127, ( #24 ) ) ;
#162 = DIRECTION ( 'NONE',  ( 0.0000000000000000000, 0.0000000000000000000, 1.000000000000000000 ) ) ;
#163 = DIRECTION ( 'NONE',  ( -0.0000000000000000000, -0.0000000000000000000, -1.000000000000000000 ) ) ;
#164 = SHAPE_DEFINITION_REPRESENTATION ( #22, #149 ) ;
#165 = COORDINATED_UNIVERSAL_TIME_OFFSET ( 5, 0, .BEHIND. ) ;
#166 = APPROVAL ( #107, 'UNSPECIFIED' ) ;
#167 = CIRCLE ( 'NONE', #80, 6.250000000000000000 ) ;
#168 = APPROVAL_PERSON_ORGANIZATION ( #42, #63, #37 ) ;
#169 = DIRECTION ( 'NONE',  ( 0.0000000000000000000, 0.0000000000000000000, 1.000000000000000000 ) ) ;
#170 = PRODUCT_RELATED_PRODUCT_CATEGORY ( 'detail', '', ( #103 ) ) ;
#171 = CALENDAR_DATE ( 2017, 1, 2 ) ;
#172 = DIRECTION ( 'NONE',  ( 0.0000000000000000000, 0.0000000000000000000, 1.000000000000000000 ) ) ;
#173 = DESIGN_CONTEXT ( 'detailed design', #97, 'design' ) ;
#174 = EDGE_CURVE ( 'NONE', #160, #108, #40, .T. ) ;
#175 = CIRCLE ( 'NONE', #59, 6.250000000000000000 ) ;
ENDSEC;
END-ISO-10303-21;
