ISO-10303-21;
HEADER;
FILE_DESCRIPTION (( 'STEP AP203' ),
    '1' );
FILE_NAME ('Web Model 22236_22236.step',
    '2022-06-22T15:36:32',
    ( '' ),
    ( '' ),
    'SwSTEP 2.0',
    'SolidWorks 2021',
    '' );
FILE_SCHEMA (( 'CONFIG_CONTROL_DESIGN' ));
ENDSEC;

DATA;
#1 = DATE_AND_TIME ( #166, #90 ) ;
#2 = APPROVAL_DATE_TIME ( #27, #144 ) ;
#3 = AXIS2_PLACEMENT_3D ( 'NONE', #173, #35, #34 ) ;
#4 = PERSON_AND_ORGANIZATION_ROLE ( 'classification_officer' ) ;
#5 = PRODUCT_DEFINITION_SHAPE ( 'NONE', 'NONE',  #41 ) ;
#6 = VERTEX_POINT ( 'NONE', #61 ) ;
#7 = DIRECTION ( 'NONE',  ( 0.000000000000000000, 0.000000000000000000, 1.000000000000000000 ) ) ;
#8 = CARTESIAN_POINT ( 'NONE',  ( -5.000000000000000000, 0.000000000000000000, 0.2099999999999999922 ) ) ;
#9 = EDGE_CURVE ( 'NONE', #6, #29, #40, .T. ) ;
#10 = AXIS2_PLACEMENT_3D ( 'NONE', #143, #131, #87 ) ;
#11 =( NAMED_UNIT ( * ) PLANE_ANGLE_UNIT ( ) SI_UNIT ( $, .RADIAN. ) );
#12 = PERSON_AND_ORGANIZATION ( #33, #106 ) ;
#13 = DATE_AND_TIME ( #24, #58 ) ;
#14 = CC_DESIGN_PERSON_AND_ORGANIZATION_ASSIGNMENT ( #158, #31, ( #127 ) ) ;
#15 = CC_DESIGN_APPROVAL ( #26, ( #98 ) ) ;
#16 = APPROVAL_PERSON_ORGANIZATION ( #125, #26, #57 ) ;
#17 = SHAPE_DEFINITION_REPRESENTATION ( #5, #42 ) ;
#18 = CARTESIAN_POINT ( 'NONE',  ( 0.000000000000000000, 0.000000000000000000, 0.000000000000000000 ) ) ;
#19 = FACE_OUTER_BOUND ( 'NONE', #129, .T. ) ;
#20 = EDGE_CURVE ( 'NONE', #29, #6, #157, .T. ) ;
#21 = CARTESIAN_POINT ( 'NONE',  ( 0.000000000000000000, 0.000000000000000000, 0.2099999999999999922 ) ) ;
#22 =( LENGTH_UNIT ( ) NAMED_UNIT ( * ) SI_UNIT ( .MILLI., .METRE. ) );
#23 = DIRECTION ( 'NONE',  ( -0.000000000000000000, -0.000000000000000000, -1.000000000000000000 ) ) ;
#24 = CALENDAR_DATE ( 2022, 22, 6 ) ;
#25 = PERSON_AND_ORGANIZATION ( #33, #106 ) ;
#26 = APPROVAL ( #122, 'UNSPECIFIED' ) ;
#27 = DATE_AND_TIME ( #108, #36 ) ;
#28 = AXIS2_PLACEMENT_3D ( 'NONE', #32, #7, #63 ) ;
#29 = VERTEX_POINT ( 'NONE', #112 ) ;
#30 = ORIENTED_EDGE ( 'NONE', *, *, #20, .T. ) ;
#31 = PERSON_AND_ORGANIZATION_ROLE ( 'design_owner' ) ;
#32 = CARTESIAN_POINT ( 'NONE',  ( 0.000000000000000000, 0.000000000000000000, 0.000000000000000000 ) ) ;
#33 = PERSON ( 'UNSPECIFIED', 'UNSPECIFIED', 'UNSPECIFIED', ('UNSPECIFIED'), ('UNSPECIFIED'), ('UNSPECIFIED') ) ;
#34 = DIRECTION ( 'NONE',  ( 1.000000000000000000, 0.000000000000000000, 0.000000000000000000 ) ) ;
#35 = DIRECTION ( 'NONE',  ( 0.000000000000000000, 0.000000000000000000, 1.000000000000000000 ) ) ;
#36 = LOCAL_TIME ( 11, 36, 32.00000000000000000, #152 ) ;
#37 =( NAMED_UNIT ( * ) SI_UNIT ( $, .STERADIAN. ) SOLID_ANGLE_UNIT ( ) );
#38 = DATE_TIME_ROLE ( 'classification_date' ) ;
#39 = COORDINATED_UNIVERSAL_TIME_OFFSET ( 5, 0, .BEHIND. ) ;
#40 = CIRCLE ( 'NONE', #110, 5.000000000000000000 ) ;
#41 = PRODUCT_DEFINITION ( 'UNKNOWN', '', #98, #170 ) ;
#42 = ADVANCED_BREP_SHAPE_REPRESENTATION ( 'Web Model 22236_22236', ( #45, #28 ), #104 ) ;
#43 = APPROVAL_STATUS ( 'not_yet_approved' ) ;
#44 = CC_DESIGN_APPROVAL ( #144, ( #113 ) ) ;
#45 = MANIFOLD_SOLID_BREP ( 'Boss-Extrude1', #82 ) ;
#46 = EDGE_LOOP ( 'NONE', ( #168, #47 ) ) ;
#47 = ORIENTED_EDGE ( 'NONE', *, *, #60, .T. ) ;
#48 = APPLICATION_CONTEXT ( 'configuration controlled 3d designs of mechanical parts and assemblies' ) ;
#49 = CC_DESIGN_PERSON_AND_ORGANIZATION_ASSIGNMENT ( #12, #66, ( #41 ) ) ;
#50 = CIRCLE ( 'NONE', #3, 5.000000000000000000 ) ;
#51 = ORIENTED_EDGE ( 'NONE', *, *, #9, .F. ) ;
#52 = DIRECTION ( 'NONE',  ( -0.000000000000000000, -0.000000000000000000, -1.000000000000000000 ) ) ;
#53 = LINE ( 'NONE', #103, #159 ) ;
#54 = CARTESIAN_POINT ( 'NONE',  ( -5.000000000000000000, 0.000000000000000000, 0.2099999999999999922 ) ) ;
#55 = LOCAL_TIME ( 11, 36, 32.00000000000000000, #136 ) ;
#56 = PERSON_AND_ORGANIZATION ( #33, #106 ) ;
#57 = APPROVAL_ROLE ( '' ) ;
#58 = LOCAL_TIME ( 11, 36, 32.00000000000000000, #109 ) ;
#59 = PERSON_AND_ORGANIZATION ( #33, #106 ) ;
#60 = EDGE_CURVE ( 'NONE', #169, #72, #130, .T. ) ;
#61 = CARTESIAN_POINT ( 'NONE',  ( 5.000000000000000000, 6.123233995736766282E-16, 0.000000000000000000 ) ) ;
#62 = ORIENTED_EDGE ( 'NONE', *, *, #20, .F. ) ;
#63 = DIRECTION ( 'NONE',  ( 1.000000000000000000, 0.000000000000000000, 0.000000000000000000 ) ) ;
#64 = CYLINDRICAL_SURFACE ( 'NONE', #10, 5.000000000000000000 ) ;
#65 = AXIS2_PLACEMENT_3D ( 'NONE', #21, #74, #174 ) ;
#66 = PERSON_AND_ORGANIZATION_ROLE ( 'creator' ) ;
#67 = PERSON_AND_ORGANIZATION ( #33, #106 ) ;
#68 = AXIS2_PLACEMENT_3D ( 'NONE', #146, #163, #99 ) ;
#69 = DIRECTION ( 'NONE',  ( 0.000000000000000000, 0.000000000000000000, 1.000000000000000000 ) ) ;
#70 = DIRECTION ( 'NONE',  ( 1.000000000000000000, 0.000000000000000000, 0.000000000000000000 ) ) ;
#71 = ADVANCED_FACE ( 'NONE', ( #120 ), #64, .T. ) ;
#72 = VERTEX_POINT ( 'NONE', #54 ) ;
#73 = PLANE ( 'NONE',  #68 ) ;
#74 = DIRECTION ( 'NONE',  ( -0.000000000000000000, -0.000000000000000000, -1.000000000000000000 ) ) ;
#75 = EDGE_CURVE ( 'NONE', #72, #29, #145, .T. ) ;
#76 = CARTESIAN_POINT ( 'NONE',  ( 0.000000000000000000, 0.000000000000000000, 0.2099999999999999922 ) ) ;
#77 = CARTESIAN_POINT ( 'NONE',  ( 5.000000000000000000, 6.123233995736766282E-16, 0.2099999999999999922 ) ) ;
#78 = COORDINATED_UNIVERSAL_TIME_OFFSET ( 5, 0, .BEHIND. ) ;
#79 = PERSON_AND_ORGANIZATION_ROLE ( 'design_supplier' ) ;
#80 = ORIENTED_EDGE ( 'NONE', *, *, #9, .T. ) ;
#81 = APPROVAL ( #142, 'UNSPECIFIED' ) ;
#82 = CLOSED_SHELL ( 'NONE', ( #71, #138, #167, #141 ) ) ;
#83 = EDGE_LOOP ( 'NONE', ( #153, #156, #80, #140 ) ) ;
#84 = CC_DESIGN_DATE_AND_TIME_ASSIGNMENT ( #137, #38, ( #113 ) ) ;
#85 = AXIS2_PLACEMENT_3D ( 'NONE', #76, #119, #161 ) ;
#86 = PERSON_AND_ORGANIZATION ( #33, #106 ) ;
#87 = DIRECTION ( 'NONE',  ( -1.000000000000000000, 0.000000000000000000, 0.000000000000000000 ) ) ;
#88 = CC_DESIGN_PERSON_AND_ORGANIZATION_ASSIGNMENT ( #59, #4, ( #113 ) ) ;
#89 = CARTESIAN_POINT ( 'NONE',  ( 0.000000000000000000, 0.000000000000000000, 0.000000000000000000 ) ) ;
#90 = LOCAL_TIME ( 11, 36, 32.00000000000000000, #39 ) ;
#91 = CC_DESIGN_APPROVAL ( #81, ( #41 ) ) ;
#92 = PERSON_AND_ORGANIZATION_ROLE ( 'creator' ) ;
#93 = APPLICATION_CONTEXT ( 'configuration controlled 3d designs of mechanical parts and assemblies' ) ;
#94 = DATE_AND_TIME ( #121, #128 ) ;
#95 = APPROVAL_ROLE ( '' ) ;
#96 = ORIENTED_EDGE ( 'NONE', *, *, #75, .T. ) ;
#97 = CARTESIAN_POINT ( 'NONE',  ( 0.000000000000000000, 0.000000000000000000, 0.000000000000000000 ) ) ;
#98 = PRODUCT_DEFINITION_FORMATION_WITH_SPECIFIED_SOURCE ( 'ANY', '', #127, .NOT_KNOWN. ) ;
#99 = DIRECTION ( 'NONE',  ( 1.000000000000000000, 0.000000000000000000, -0.000000000000000000 ) ) ;
#100 = EDGE_CURVE ( 'NONE', #169, #6, #53, .T. ) ;
#101 = APPLICATION_PROTOCOL_DEFINITION ( 'international standard', 'config_control_design', 1994, #93 ) ;
#102 = PLANE ( 'NONE',  #151 ) ;
#103 = CARTESIAN_POINT ( 'NONE',  ( 5.000000000000000000, 6.123233995736766282E-16, 0.2099999999999999922 ) ) ;
#104 =( GEOMETRIC_REPRESENTATION_CONTEXT ( 3 ) GLOBAL_UNCERTAINTY_ASSIGNED_CONTEXT ( ( #107 ) ) GLOBAL_UNIT_ASSIGNED_CONTEXT ( ( #22, #11, #37 ) ) REPRESENTATION_CONTEXT ( 'NONE', 'WORKASPACE' ) );
#105 = SECURITY_CLASSIFICATION_LEVEL ( 'unclassified' ) ;
#106 = ORGANIZATION ( 'UNSPECIFIED', 'UNSPECIFIED', '' ) ;
#107 = UNCERTAINTY_MEASURE_WITH_UNIT (LENGTH_MEASURE( 1.000000000000000082E-05 ), #22, 'distance_accuracy_value', 'NONE');
#108 = CALENDAR_DATE ( 2022, 22, 6 ) ;
#109 = COORDINATED_UNIVERSAL_TIME_OFFSET ( 5, 0, .BEHIND. ) ;
#110 = AXIS2_PLACEMENT_3D ( 'NONE', #18, #69, #126 ) ;
#111 = EDGE_LOOP ( 'NONE', ( #62, #51 ) ) ;
#112 = CARTESIAN_POINT ( 'NONE',  ( -5.000000000000000000, 0.000000000000000000, 0.000000000000000000 ) ) ;
#113 = SECURITY_CLASSIFICATION ( '', '', #105 ) ;
#114 = ORIENTED_EDGE ( 'NONE', *, *, #117, .F. ) ;
#115 = ORIENTED_EDGE ( 'NONE', *, *, #100, .F. ) ;
#116 = APPLICATION_PROTOCOL_DEFINITION ( 'international standard', 'config_control_design', 1994, #48 ) ;
#117 = EDGE_CURVE ( 'NONE', #72, #169, #50, .T. ) ;
#118 = CYLINDRICAL_SURFACE ( 'NONE', #65, 5.000000000000000000 ) ;
#119 = DIRECTION ( 'NONE',  ( 0.000000000000000000, 0.000000000000000000, 1.000000000000000000 ) ) ;
#120 = FACE_OUTER_BOUND ( 'NONE', #83, .T. ) ;
#121 = CALENDAR_DATE ( 2022, 22, 6 ) ;
#122 = APPROVAL_STATUS ( 'not_yet_approved' ) ;
#123 = CC_DESIGN_PERSON_AND_ORGANIZATION_ASSIGNMENT ( #56, #79, ( #98 ) ) ;
#124 = VECTOR ( 'NONE', #23, 1000.000000000000000 ) ;
#125 = PERSON_AND_ORGANIZATION ( #33, #106 ) ;
#126 = DIRECTION ( 'NONE',  ( 1.000000000000000000, 0.000000000000000000, 0.000000000000000000 ) ) ;
#127 = PRODUCT ( 'Web Model 22236_22236', 'Web Model 22236_22236', '', ( #135 ) ) ;
#128 = LOCAL_TIME ( 11, 36, 32.00000000000000000, #78 ) ;
#129 = EDGE_LOOP ( 'NONE', ( #115, #114, #96, #30 ) ) ;
#130 = CIRCLE ( 'NONE', #85, 5.000000000000000000 ) ;
#131 = DIRECTION ( 'NONE',  ( -0.000000000000000000, -0.000000000000000000, -1.000000000000000000 ) ) ;
#132 = APPROVAL_PERSON_ORGANIZATION ( #86, #81, #147 ) ;
#133 = FACE_OUTER_BOUND ( 'NONE', #46, .T. ) ;
#134 = DIRECTION ( 'NONE',  ( 1.000000000000000000, 0.000000000000000000, -0.000000000000000000 ) ) ;
#135 = MECHANICAL_CONTEXT ( 'NONE', #93, 'mechanical' ) ;
#136 = COORDINATED_UNIVERSAL_TIME_OFFSET ( 5, 0, .BEHIND. ) ;
#137 = DATE_AND_TIME ( #164, #55 ) ;
#138 = ADVANCED_FACE ( 'NONE', ( #19 ), #118, .T. ) ;
#139 = CC_DESIGN_SECURITY_CLASSIFICATION ( #113, ( #98 ) ) ;
#140 = ORIENTED_EDGE ( 'NONE', *, *, #75, .F. ) ;
#141 = ADVANCED_FACE ( 'NONE', ( #160 ), #102, .F. ) ;
#142 = APPROVAL_STATUS ( 'not_yet_approved' ) ;
#143 = CARTESIAN_POINT ( 'NONE',  ( 0.000000000000000000, 0.000000000000000000, 0.2099999999999999922 ) ) ;
#144 = APPROVAL ( #43, 'UNSPECIFIED' ) ;
#145 = LINE ( 'NONE', #8, #124 ) ;
#146 = CARTESIAN_POINT ( 'NONE',  ( 0.000000000000000000, 0.000000000000000000, 0.2099999999999999922 ) ) ;
#147 = APPROVAL_ROLE ( '' ) ;
#148 = APPROVAL_DATE_TIME ( #94, #81 ) ;
#149 = AXIS2_PLACEMENT_3D ( 'NONE', #97, #154, #70 ) ;
#150 = PRODUCT_RELATED_PRODUCT_CATEGORY ( 'detail', '', ( #127 ) ) ;
#151 = AXIS2_PLACEMENT_3D ( 'NONE', #89, #171, #134 ) ;
#152 = COORDINATED_UNIVERSAL_TIME_OFFSET ( 5, 0, .BEHIND. ) ;
#153 = ORIENTED_EDGE ( 'NONE', *, *, #60, .F. ) ;
#154 = DIRECTION ( 'NONE',  ( 0.000000000000000000, 0.000000000000000000, 1.000000000000000000 ) ) ;
#155 = CC_DESIGN_PERSON_AND_ORGANIZATION_ASSIGNMENT ( #25, #92, ( #98 ) ) ;
#156 = ORIENTED_EDGE ( 'NONE', *, *, #100, .T. ) ;
#157 = CIRCLE ( 'NONE', #149, 5.000000000000000000 ) ;
#158 = PERSON_AND_ORGANIZATION ( #33, #106 ) ;
#159 = VECTOR ( 'NONE', #52, 1000.000000000000000 ) ;
#160 = FACE_OUTER_BOUND ( 'NONE', #111, .T. ) ;
#161 = DIRECTION ( 'NONE',  ( 1.000000000000000000, 0.000000000000000000, 0.000000000000000000 ) ) ;
#162 = CC_DESIGN_DATE_AND_TIME_ASSIGNMENT ( #13, #165, ( #41 ) ) ;
#163 = DIRECTION ( 'NONE',  ( 0.000000000000000000, 0.000000000000000000, 1.000000000000000000 ) ) ;
#164 = CALENDAR_DATE ( 2022, 22, 6 ) ;
#165 = DATE_TIME_ROLE ( 'creation_date' ) ;
#166 = CALENDAR_DATE ( 2022, 22, 6 ) ;
#167 = ADVANCED_FACE ( 'NONE', ( #133 ), #73, .T. ) ;
#168 = ORIENTED_EDGE ( 'NONE', *, *, #117, .T. ) ;
#169 = VERTEX_POINT ( 'NONE', #77 ) ;
#170 = DESIGN_CONTEXT ( 'detailed design', #48, 'design' ) ;
#171 = DIRECTION ( 'NONE',  ( 0.000000000000000000, 0.000000000000000000, 1.000000000000000000 ) ) ;
#172 = APPROVAL_PERSON_ORGANIZATION ( #67, #144, #95 ) ;
#173 = CARTESIAN_POINT ( 'NONE',  ( 0.000000000000000000, 0.000000000000000000, 0.2099999999999999922 ) ) ;
#174 = DIRECTION ( 'NONE',  ( -1.000000000000000000, 0.000000000000000000, 0.000000000000000000 ) ) ;
#175 = APPROVAL_DATE_TIME ( #1, #26 ) ;
ENDSEC;
END-ISO-10303-21;
