ISO-10303-21;
HEADER;
FILE_DESCRIPTION (( 'STEP AP203' ),
    '1' );
FILE_NAME ('Web Model 49004.STEP',
    '2017-02-01T19:13:15',
    ( '' ),
    ( '' ),
    'SwSTEP 2.0',
    'SolidWorks 2016',
    '' );
FILE_SCHEMA (( 'CONFIG_CONTROL_DESIGN' ));
ENDSEC;

DATA;
#1 = ADVANCED_BREP_SHAPE_REPRESENTATION ( 'Web Model 49004', ( #203, #298, #10 ), #266 ) ;
#2 = CC_DESIGN_PERSON_AND_ORGANIZATION_ASSIGNMENT ( #130, #49, ( #79 ) ) ;
#3 = FACE_OUTER_BOUND ( 'NONE', #212, .T. ) ;
#4 = CARTESIAN_POINT ( 'NONE',  ( 35.35533905932755500, -3.891179526048115600E-015, -25.00000000000000000 ) ) ;
#5 = CARTESIAN_POINT ( 'NONE',  ( 1.732185581861186800E-015, 35.35533905932718600, 25.00000000000000000 ) ) ;
#6 = VERTEX_POINT ( 'NONE', #38 ) ;
#7 = CARTESIAN_POINT ( 'NONE',  ( 35.35533905932756200, 0.0000000000000000000, 25.00000000000000400 ) ) ;
#8 = PERSON_AND_ORGANIZATION ( #270, #259 ) ;
#9 = DIRECTION ( 'NONE',  ( -5.551115123125781500E-017, 0.0000000000000000000, -1.000000000000000000 ) ) ;
#10 = AXIS2_PLACEMENT_3D ( 'NONE', #98, #272, #24 ) ;
#11 = CARTESIAN_POINT ( 'NONE',  ( -35.35533905932755500, 0.0000000000000000000, 25.00000000000000000 ) ) ;
#12 = ORIENTED_EDGE ( 'NONE', *, *, #236, .T. ) ;
#13 = VERTEX_POINT ( 'NONE', #62 ) ;
#14 = DIRECTION ( 'NONE',  ( 0.7071067811865512400, -0.7071067811865439100, -3.925231146709457600E-017 ) ) ;
#15 = DATE_AND_TIME ( #207, #240 ) ;
#16 = DIRECTION ( 'NONE',  ( 1.000000000000000000, 0.0000000000000000000, -0.0000000000000000000 ) ) ;
#17 = ORIENTED_EDGE ( 'NONE', *, *, #241, .T. ) ;
#18 = COORDINATED_UNIVERSAL_TIME_OFFSET ( 5, 0, .BEHIND. ) ;
#19 =( LENGTH_UNIT ( ) NAMED_UNIT ( * ) SI_UNIT ( .MILLI., .METRE. ) );
#20 = VECTOR ( 'NONE', #215, 999.9999999999998900 ) ;
#21 = LINE ( 'NONE', #164, #168 ) ;
#22 = DIRECTION ( 'NONE',  ( -0.0000000000000000000, -0.0000000000000000000, -1.000000000000000000 ) ) ;
#23 = EDGE_CURVE ( 'NONE', #73, #175, #315, .T. ) ;
#24 = DIRECTION ( 'NONE',  ( 1.000000000000000000, 0.0000000000000000000, 0.0000000000000000000 ) ) ;
#25 = PRODUCT ( 'Web Model 49004', 'Web Model 49004', '', ( #245 ) ) ;
#26 = CLOSED_SHELL ( 'NONE', ( #303, #63, #183, #278, #184 ) ) ;
#27 = EDGE_LOOP ( 'NONE', ( #191, #64, #117 ) ) ;
#28 = DATE_AND_TIME ( #234, #127 ) ;
#29 = AXIS2_PLACEMENT_3D ( 'NONE', #282, #188, #135 ) ;
#30 = VECTOR ( 'NONE', #193, 1000.000000000000000 ) ;
#31 = APPROVAL_DATE_TIME ( #248, #141 ) ;
#32 = VERTEX_POINT ( 'NONE', #11 ) ;
#33 = EDGE_CURVE ( 'NONE', #258, #125, #34, .T. ) ;
#34 = LINE ( 'NONE', #142, #285 ) ;
#35 = DIRECTION ( 'NONE',  ( 0.0000000000000000000, 0.0000000000000000000, 1.000000000000000000 ) ) ;
#36 = ORIENTED_EDGE ( 'NONE', *, *, #68, .T. ) ;
#37 = COORDINATED_UNIVERSAL_TIME_OFFSET ( 5, 0, .BEHIND. ) ;
#38 = CARTESIAN_POINT ( 'NONE',  ( 35.35533905932756200, -0.0000000000000000000, -25.00000000000001100 ) ) ;
#39 = ADVANCED_FACE ( 'NONE', ( #128 ), #189, .F. ) ;
#40 = EDGE_CURVE ( 'NONE', #13, #105, #60, .T. ) ;
#41 = CARTESIAN_POINT ( 'NONE',  ( -35.35533905932756200, 3.891179526048115600E-015, 25.00000000000001100 ) ) ;
#42 = CARTESIAN_POINT ( 'NONE',  ( 1.732185581861186800E-015, 35.35533905932718600, -25.00000000000000000 ) ) ;
#43 = ORIENTED_EDGE ( 'NONE', *, *, #33, .T. ) ;
#44 = DIRECTION ( 'NONE',  ( -0.0000000000000000000, -0.0000000000000000000, -1.000000000000000000 ) ) ;
#45 = DIRECTION ( 'NONE',  ( 1.000000000000000000, -5.502958859365728200E-017, -5.551115123125781500E-017 ) ) ;
#46 = CARTESIAN_POINT ( 'NONE',  ( -35.35533905932755500, 0.0000000000000000000, 25.00000000000000000 ) ) ;
#47 = VECTOR ( 'NONE', #129, 1000.000000000000000 ) ;
#48 = LINE ( 'NONE', #286, #235 ) ;
#49 = PERSON_AND_ORGANIZATION_ROLE ( 'creator' ) ;
#50 = DIRECTION ( 'NONE',  ( -0.7071067811865512400, -0.7071067811865438000, 3.925231146709457600E-017 ) ) ;
#51 = UNCERTAINTY_MEASURE_WITH_UNIT (LENGTH_MEASURE( 1.000000000000000100E-005 ), #19, 'distance_accuracy_value', 'NONE');
#52 = DATE_AND_TIME ( #55, #254 ) ;
#53 = FACE_OUTER_BOUND ( 'NONE', #116, .T. ) ;
#54 = EDGE_LOOP ( 'NONE', ( #102, #151, #239, #195 ) ) ;
#55 = CALENDAR_DATE ( 2017, 1, 2 ) ;
#56 = VERTEX_POINT ( 'NONE', #283 ) ;
#57 = CARTESIAN_POINT ( 'NONE',  ( 35.35533905932755500, -3.891179526048115600E-015, 25.00000000000000000 ) ) ;
#58 = FACE_OUTER_BOUND ( 'NONE', #54, .T. ) ;
#59 = CC_DESIGN_PERSON_AND_ORGANIZATION_ASSIGNMENT ( #280, #243, ( #271 ) ) ;
#60 = LINE ( 'NONE', #260, #179 ) ;
#61 = CARTESIAN_POINT ( 'NONE',  ( 35.35533905932756200, -0.0000000000000000000, -25.00000000000001100 ) ) ;
#62 = CARTESIAN_POINT ( 'NONE',  ( 35.35533905932755500, -3.891179526048115600E-015, 25.00000000000000000 ) ) ;
#63 = ADVANCED_FACE ( 'NONE', ( #53 ), #110, .F. ) ;
#64 = ORIENTED_EDGE ( 'NONE', *, *, #224, .T. ) ;
#65 = DATE_AND_TIME ( #186, #74 ) ;
#66 = PLANE ( 'NONE',  #121 ) ;
#67 = DIRECTION ( 'NONE',  ( -0.7071067811865512400, -0.7071067811865439100, 0.0000000000000000000 ) ) ;
#68 = EDGE_CURVE ( 'NONE', #56, #77, #256, .T. ) ;
#69 = EDGE_LOOP ( 'NONE', ( #17, #233, #126, #232 ) ) ;
#70 = FACE_OUTER_BOUND ( 'NONE', #289, .T. ) ;
#71 = ORIENTED_EDGE ( 'NONE', *, *, #158, .F. ) ;
#72 = DIRECTION ( 'NONE',  ( 1.000000000000000000, -5.502958859365729400E-017, 0.0000000000000000000 ) ) ;
#73 = VERTEX_POINT ( 'NONE', #42 ) ;
#74 = LOCAL_TIME ( 14, 13, 15.00000000000000000, #252 ) ;
#75 = APPROVAL_STATUS ( 'not_yet_approved' ) ;
#76 = EDGE_CURVE ( 'NONE', #56, #6, #318, .T. ) ;
#77 = VERTEX_POINT ( 'NONE', #209 ) ;
#78 = EDGE_LOOP ( 'NONE', ( #155, #311, #150, #296 ) ) ;
#79 = PRODUCT_DEFINITION ( 'UNKNOWN', '', #271, #187 ) ;
#80 = DIRECTION ( 'NONE',  ( -1.000000000000000000, 5.502958859365728200E-017, 5.551115123125781500E-017 ) ) ;
#81 = CARTESIAN_POINT ( 'NONE',  ( -3.444068010797414800E-016, -35.35533905932718600, 25.00000000000000700 ) ) ;
#82 = CC_DESIGN_DATE_AND_TIME_ASSIGNMENT ( #65, #173, ( #79 ) ) ;
#83 = LINE ( 'NONE', #109, #174 ) ;
#84 = PLANE ( 'NONE',  #221 ) ;
#85 = PERSON_AND_ORGANIZATION ( #270, #259 ) ;
#86 = FACE_OUTER_BOUND ( 'NONE', #69, .T. ) ;
#87 = DIRECTION ( 'NONE',  ( -1.000000000000000000, 5.502958859365728200E-017, 5.551115123125781500E-017 ) ) ;
#88 = ORIENTED_EDGE ( 'NONE', *, *, #23, .T. ) ;
#89 = LINE ( 'NONE', #90, #20 ) ;
#90 = CARTESIAN_POINT ( 'NONE',  ( -3.119964362642633100E-015, -35.35533905932718600, -25.00000000000000700 ) ) ;
#91 = EDGE_CURVE ( 'NONE', #13, #247, #197, .T. ) ;
#92 = PLANE ( 'NONE',  #227 ) ;
#93 = CC_DESIGN_PERSON_AND_ORGANIZATION_ASSIGNMENT ( #8, #292, ( #271 ) ) ;
#94 = DIRECTION ( 'NONE',  ( -1.000000000000000000, 5.502958859365729400E-017, 0.0000000000000000000 ) ) ;
#95 = PERSON_AND_ORGANIZATION ( #270, #259 ) ;
#96 = APPROVAL_STATUS ( 'not_yet_approved' ) ;
#97 = ORIENTED_EDGE ( 'NONE', *, *, #106, .F. ) ;
#98 = CARTESIAN_POINT ( 'NONE',  ( 0.0000000000000000000, 0.0000000000000000000, 0.0000000000000000000 ) ) ;
#99 = APPROVAL ( #96, 'UNSPECIFIED' ) ;
#100 =( NAMED_UNIT ( * ) SI_UNIT ( $, .STERADIAN. ) SOLID_ANGLE_UNIT ( ) );
#101 = DIRECTION ( 'NONE',  ( 5.551115123125781500E-017, 0.0000000000000000000, 1.000000000000000000 ) ) ;
#102 = ORIENTED_EDGE ( 'NONE', *, *, #201, .T. ) ;
#103 = PRODUCT_RELATED_PRODUCT_CATEGORY ( 'detail', '', ( #25 ) ) ;
#104 = AXIS2_PLACEMENT_3D ( 'NONE', #257, #213, #140 ) ;
#105 = VERTEX_POINT ( 'NONE', #5 ) ;
#106 = EDGE_CURVE ( 'NONE', #32, #13, #83, .T. ) ;
#107 = SECURITY_CLASSIFICATION ( '', '', #316 ) ;
#108 = CARTESIAN_POINT ( 'NONE',  ( 35.35533905932756200, 0.0000000000000000000, 25.00000000000000400 ) ) ;
#109 = CARTESIAN_POINT ( 'NONE',  ( -35.35533905932755500, 0.0000000000000000000, 25.00000000000000000 ) ) ;
#110 = PLANE ( 'NONE',  #104 ) ;
#111 = ORIENTED_EDGE ( 'NONE', *, *, #241, .F. ) ;
#112 = DIRECTION ( 'NONE',  ( 0.7071067811865512400, -0.7071067811865439100, -3.925231146709457600E-017 ) ) ;
#113 = CARTESIAN_POINT ( 'NONE',  ( -3.119964362642633100E-015, -35.35533905932718600, -25.00000000000000700 ) ) ;
#114 = EDGE_CURVE ( 'NONE', #77, #258, #120, .T. ) ;
#115 = CARTESIAN_POINT ( 'NONE',  ( -35.35533905932755500, 0.0000000000000000000, -25.00000000000000000 ) ) ;
#116 = EDGE_LOOP ( 'NONE', ( #88, #228, #185, #156 ) ) ;
#117 = ORIENTED_EDGE ( 'NONE', *, *, #106, .T. ) ;
#118 = CARTESIAN_POINT ( 'NONE',  ( -35.35533905932755500, 0.0000000000000000000, -25.00000000000000000 ) ) ;
#119 = CALENDAR_DATE ( 2017, 1, 2 ) ;
#120 = LINE ( 'NONE', #41, #275 ) ;
#121 = AXIS2_PLACEMENT_3D ( 'NONE', #262, #217, #238 ) ;
#122 = CC_DESIGN_APPROVAL ( #230, ( #79 ) ) ;
#123 = APPROVAL_ROLE ( '' ) ;
#124 = APPLICATION_CONTEXT ( 'configuration controlled 3d designs of mechanical parts and assemblies' ) ;
#125 = VERTEX_POINT ( 'NONE', #113 ) ;
#126 = ORIENTED_EDGE ( 'NONE', *, *, #68, .F. ) ;
#127 = LOCAL_TIME ( 14, 13, 15.00000000000000000, #302 ) ;
#128 = FACE_OUTER_BOUND ( 'NONE', #199, .T. ) ;
#129 = DIRECTION ( 'NONE',  ( -0.0000000000000000000, -0.0000000000000000000, -1.000000000000000000 ) ) ;
#130 = PERSON_AND_ORGANIZATION ( #270, #259 ) ;
#131 = ORIENTED_EDGE ( 'NONE', *, *, #253, .T. ) ;
#132 = ORIENTED_EDGE ( 'NONE', *, *, #114, .T. ) ;
#133 = AXIS2_PLACEMENT_3D ( 'NONE', #57, #250, #162 ) ;
#134 = ADVANCED_FACE ( 'NONE', ( #291 ), #66, .F. ) ;
#135 = DIRECTION ( 'NONE',  ( -0.7071067811865512400, 0.7071067811865439100, 3.925231146709457600E-017 ) ) ;
#136 = ADVANCED_FACE ( 'NONE', ( #86 ), #208, .F. ) ;
#137 = PERSON_AND_ORGANIZATION ( #270, #259 ) ;
#138 = AXIS2_PLACEMENT_3D ( 'NONE', #145, #312, #45 ) ;
#139 = EDGE_CURVE ( 'NONE', #279, #56, #48, .T. ) ;
#140 = DIRECTION ( 'NONE',  ( 0.7071067811865512400, 0.7071067811865439100, 0.0000000000000000000 ) ) ;
#141 = APPROVAL ( #75, 'UNSPECIFIED' ) ;
#142 = CARTESIAN_POINT ( 'NONE',  ( -35.35533905932756200, 3.891179526048115600E-015, -25.00000000000000400 ) ) ;
#143 = EDGE_LOOP ( 'NONE', ( #301, #111, #71 ) ) ;
#144 = APPROVAL_DATE_TIME ( #28, #230 ) ;
#145 = CARTESIAN_POINT ( 'NONE',  ( 35.35533905932756200, 0.0000000000000000000, 25.00000000000000400 ) ) ;
#146 = CARTESIAN_POINT ( 'NONE',  ( 35.35533905932755500, -3.891179526048115600E-015, -25.00000000000000000 ) ) ;
#147 = CC_DESIGN_SECURITY_CLASSIFICATION ( #107, ( #271 ) ) ;
#148 = APPROVAL_STATUS ( 'not_yet_approved' ) ;
#149 = CARTESIAN_POINT ( 'NONE',  ( -3.444068010797414800E-016, -35.35533905932718600, 25.00000000000000700 ) ) ;
#150 = ORIENTED_EDGE ( 'NONE', *, *, #139, .F. ) ;
#151 = ORIENTED_EDGE ( 'NONE', *, *, #304, .F. ) ;
#152 = COORDINATED_UNIVERSAL_TIME_OFFSET ( 5, 0, .BEHIND. ) ;
#153 = VECTOR ( 'NONE', #87, 1000.000000000000000 ) ;
#154 = FACE_OUTER_BOUND ( 'NONE', #210, .T. ) ;
#155 = ORIENTED_EDGE ( 'NONE', *, *, #158, .T. ) ;
#156 = ORIENTED_EDGE ( 'NONE', *, *, #304, .T. ) ;
#157 = CARTESIAN_POINT ( 'NONE',  ( 0.0000000000000000000, 0.0000000000000000000, 25.00000000000000000 ) ) ;
#158 = EDGE_CURVE ( 'NONE', #125, #6, #89, .T. ) ;
#159 = ORIENTED_EDGE ( 'NONE', *, *, #139, .T. ) ;
#160 = LINE ( 'NONE', #46, #47 ) ;
#161 = CARTESIAN_POINT ( 'NONE',  ( 35.35533905932755500, -3.891179526048115600E-015, 25.00000000000000000 ) ) ;
#162 = DIRECTION ( 'NONE',  ( 0.7071067811865511300, -0.7071067811865440200, 0.0000000000000000000 ) ) ;
#163 = EDGE_CURVE ( 'NONE', #175, #247, #202, .T. ) ;
#164 = CARTESIAN_POINT ( 'NONE',  ( -35.35533905932756200, 3.891179526048115600E-015, 25.00000000000001100 ) ) ;
#165 = DIRECTION ( 'NONE',  ( 5.502958859365729400E-017, 1.000000000000000000, -0.0000000000000000000 ) ) ;
#166 = PLANE ( 'NONE',  #180 ) ;
#167 = APPROVAL_PERSON_ORGANIZATION ( #95, #141, #295 ) ;
#168 = VECTOR ( 'NONE', #14, 1000.000000000000000 ) ;
#169 = VECTOR ( 'NONE', #314, 999.9999999999998900 ) ;
#170 = AXIS2_PLACEMENT_3D ( 'NONE', #157, #35, #223 ) ;
#171 = DIRECTION ( 'NONE',  ( -0.7071067811865438000, 0.7071067811865512400, 3.925231146709417000E-017 ) ) ;
#172 = EDGE_CURVE ( 'NONE', #279, #125, #231, .T. ) ;
#173 = DATE_TIME_ROLE ( 'creation_date' ) ;
#174 = VECTOR ( 'NONE', #305, 1000.000000000000000 ) ;
#175 = VERTEX_POINT ( 'NONE', #118 ) ;
#176 = CARTESIAN_POINT ( 'NONE',  ( -35.35533905932756200, 3.891179526048115600E-015, -25.00000000000000400 ) ) ;
#177 = APPROVAL_DATE_TIME ( #15, #99 ) ;
#178 = CC_DESIGN_APPROVAL ( #99, ( #107 ) ) ;
#179 = VECTOR ( 'NONE', #307, 999.9999999999998900 ) ;
#180 = AXIS2_PLACEMENT_3D ( 'NONE', #284, #165, #94 ) ;
#181 = CC_DESIGN_DATE_AND_TIME_ASSIGNMENT ( #52, #194, ( #107 ) ) ;
#182 = PERSON_AND_ORGANIZATION ( #270, #259 ) ;
#183 = ADVANCED_FACE ( 'NONE', ( #70 ), #166, .F. ) ;
#184 = ADVANCED_FACE ( 'NONE', ( #154 ), #92, .F. ) ;
#185 = ORIENTED_EDGE ( 'NONE', *, *, #224, .F. ) ;
#186 = CALENDAR_DATE ( 2017, 1, 2 ) ;
#187 = DESIGN_CONTEXT ( 'detailed design', #124, 'design' ) ;
#188 = DIRECTION ( 'NONE',  ( 0.7071067811865439100, 0.7071067811865512400, -3.925231146709417000E-017 ) ) ;
#189 = PLANE ( 'NONE',  #29 ) ;
#190 = VECTOR ( 'NONE', #72, 1000.000000000000000 ) ;
#191 = ORIENTED_EDGE ( 'NONE', *, *, #40, .T. ) ;
#192 = FACE_OUTER_BOUND ( 'NONE', #78, .T. ) ;
#193 = DIRECTION ( 'NONE',  ( -0.7071067811865512400, -0.7071067811865439100, 0.0000000000000000000 ) ) ;
#194 = DATE_TIME_ROLE ( 'classification_date' ) ;
#195 = ORIENTED_EDGE ( 'NONE', *, *, #91, .T. ) ;
#196 = SHAPE_DEFINITION_REPRESENTATION ( #211, #1 ) ;
#197 = LINE ( 'NONE', #161, #269 ) ;
#198 = APPLICATION_PROTOCOL_DEFINITION ( 'international standard', 'config_control_design', 1994, #319 ) ;
#199 = EDGE_LOOP ( 'NONE', ( #43, #273, #246, #132 ) ) ;
#200 =( NAMED_UNIT ( * ) PLANE_ANGLE_UNIT ( ) SI_UNIT ( $, .RADIAN. ) );
#201 = EDGE_CURVE ( 'NONE', #247, #73, #229, .T. ) ;
#202 = LINE ( 'NONE', #115, #190 ) ;
#203 = MANIFOLD_SOLID_BREP ( '50x50 Right Angle Prism Master-1-solid1', #26 ) ;
#204 = ORIENTED_EDGE ( 'NONE', *, *, #201, .F. ) ;
#205 = DIRECTION ( 'NONE',  ( -5.551115123125781500E-017, 0.0000000000000000000, -1.000000000000000000 ) ) ;
#206 = ORIENTED_EDGE ( 'NONE', *, *, #163, .T. ) ;
#207 = CALENDAR_DATE ( 2017, 1, 2 ) ;
#208 = PLANE ( 'NONE',  #138 ) ;
#209 = CARTESIAN_POINT ( 'NONE',  ( -35.35533905932756200, 3.891179526048115600E-015, 25.00000000000001100 ) ) ;
#210 = EDGE_LOOP ( 'NONE', ( #204, #310, #264 ) ) ;
#211 = PRODUCT_DEFINITION_SHAPE ( 'NONE', 'NONE',  #79 ) ;
#212 = EDGE_LOOP ( 'NONE', ( #12, #159, #36 ) ) ;
#213 = DIRECTION ( 'NONE',  ( 0.7071067811865439100, -0.7071067811865512400, 0.0000000000000000000 ) ) ;
#214 = APPROVAL_PERSON_ORGANIZATION ( #85, #99, #123 ) ;
#215 = DIRECTION ( 'NONE',  ( 0.7071067811865512400, 0.7071067811865439100, -3.925231146709457600E-017 ) ) ;
#216 = DIRECTION ( 'NONE',  ( -5.551115123125781500E-017, 0.0000000000000000000, -1.000000000000000000 ) ) ;
#217 = DIRECTION ( 'NONE',  ( 5.551115123125781500E-017, 0.0000000000000000000, 1.000000000000000000 ) ) ;
#218 = VECTOR ( 'NONE', #22, 1000.000000000000000 ) ;
#219 = PERSON_AND_ORGANIZATION_ROLE ( 'design_owner' ) ;
#220 = PLANE ( 'NONE',  #299 ) ;
#221 = AXIS2_PLACEMENT_3D ( 'NONE', #255, #101, #277 ) ;
#222 = CARTESIAN_POINT ( 'NONE',  ( 1.732185581861186800E-015, 35.35533905932718600, 25.00000000000000000 ) ) ;
#223 = DIRECTION ( 'NONE',  ( 1.000000000000000000, 0.0000000000000000000, -0.0000000000000000000 ) ) ;
#224 = EDGE_CURVE ( 'NONE', #105, #32, #321, .T. ) ;
#225 = CC_DESIGN_APPROVAL ( #141, ( #271 ) ) ;
#226 = LOCAL_TIME ( 14, 13, 15.00000000000000000, #37 ) ;
#227 = AXIS2_PLACEMENT_3D ( 'NONE', #288, #237, #16 ) ;
#228 = ORIENTED_EDGE ( 'NONE', *, *, #253, .F. ) ;
#229 = LINE ( 'NONE', #146, #169 ) ;
#230 = APPROVAL ( #148, 'UNSPECIFIED' ) ;
#231 = LINE ( 'NONE', #309, #287 ) ;
#232 = ORIENTED_EDGE ( 'NONE', *, *, #76, .T. ) ;
#233 = ORIENTED_EDGE ( 'NONE', *, *, #114, .F. ) ;
#234 = CALENDAR_DATE ( 2017, 1, 2 ) ;
#235 = VECTOR ( 'NONE', #242, 999.9999999999998900 ) ;
#236 = EDGE_CURVE ( 'NONE', #77, #279, #21, .T. ) ;
#237 = DIRECTION ( 'NONE',  ( 0.0000000000000000000, 0.0000000000000000000, 1.000000000000000000 ) ) ;
#238 = DIRECTION ( 'NONE',  ( -1.000000000000000000, 0.0000000000000000000, 5.551115123125781500E-017 ) ) ;
#239 = ORIENTED_EDGE ( 'NONE', *, *, #40, .F. ) ;
#240 = LOCAL_TIME ( 14, 13, 15.00000000000000000, #18 ) ;
#241 = EDGE_CURVE ( 'NONE', #6, #258, #276, .T. ) ;
#242 = DIRECTION ( 'NONE',  ( 0.7071067811865512400, 0.7071067811865439100, -3.925231146709457600E-017 ) ) ;
#243 = PERSON_AND_ORGANIZATION_ROLE ( 'creator' ) ;
#244 = APPLICATION_PROTOCOL_DEFINITION ( 'international standard', 'config_control_design', 1994, #124 ) ;
#245 = MECHANICAL_CONTEXT ( 'NONE', #319, 'mechanical' ) ;
#246 = ORIENTED_EDGE ( 'NONE', *, *, #236, .F. ) ;
#247 = VERTEX_POINT ( 'NONE', #4 ) ;
#248 = DATE_AND_TIME ( #119, #226 ) ;
#249 = VECTOR ( 'NONE', #67, 1000.000000000000000 ) ;
#250 = DIRECTION ( 'NONE',  ( -0.7071067811865440200, -0.7071067811865511300, 0.0000000000000000000 ) ) ;
#251 = CLOSED_SHELL ( 'NONE', ( #39, #306, #136, #281, #134 ) ) ;
#252 = COORDINATED_UNIVERSAL_TIME_OFFSET ( 5, 0, .BEHIND. ) ;
#253 = EDGE_CURVE ( 'NONE', #32, #175, #160, .T. ) ;
#254 = LOCAL_TIME ( 14, 13, 15.00000000000000000, #152 ) ;
#255 = CARTESIAN_POINT ( 'NONE',  ( 1.387778780781445700E-015, 0.0000000000000000000, 25.00000000000000700 ) ) ;
#256 = LINE ( 'NONE', #7, #153 ) ;
#257 = CARTESIAN_POINT ( 'NONE',  ( 1.732185581861186800E-015, 35.35533905932718600, 25.00000000000000000 ) ) ;
#258 = VERTEX_POINT ( 'NONE', #176 ) ;
#259 = ORGANIZATION ( 'UNSPECIFIED', 'UNSPECIFIED', '' ) ;
#260 = CARTESIAN_POINT ( 'NONE',  ( 35.35533905932755500, -3.891179526048115600E-015, 25.00000000000000000 ) ) ;
#261 = VECTOR ( 'NONE', #205, 1000.000000000000000 ) ;
#262 = CARTESIAN_POINT ( 'NONE',  ( -1.387778780781445700E-015, 0.0000000000000000000, -25.00000000000000700 ) ) ;
#263 = CC_DESIGN_PERSON_AND_ORGANIZATION_ASSIGNMENT ( #317, #219, ( #25 ) ) ;
#264 = ORIENTED_EDGE ( 'NONE', *, *, #23, .F. ) ;
#265 = CARTESIAN_POINT ( 'NONE',  ( 1.732185581861186800E-015, 35.35533905932718600, 25.00000000000000000 ) ) ;
#266 =( GEOMETRIC_REPRESENTATION_CONTEXT ( 3 ) GLOBAL_UNCERTAINTY_ASSIGNED_CONTEXT ( ( #51 ) ) GLOBAL_UNIT_ASSIGNED_CONTEXT ( ( #19, #200, #100 ) ) REPRESENTATION_CONTEXT ( 'NONE', 'WORKASPACE' ) );
#267 = FACE_OUTER_BOUND ( 'NONE', #27, .T. ) ;
#268 = PERSON_AND_ORGANIZATION_ROLE ( 'classification_officer' ) ;
#269 = VECTOR ( 'NONE', #44, 1000.000000000000000 ) ;
#270 = PERSON ( 'UNSPECIFIED', 'UNSPECIFIED', 'UNSPECIFIED', ('UNSPECIFIED'), ('UNSPECIFIED'), ('UNSPECIFIED') ) ;
#271 = PRODUCT_DEFINITION_FORMATION_WITH_SPECIFIED_SOURCE ( 'ANY', '', #25, .NOT_KNOWN. ) ;
#272 = DIRECTION ( 'NONE',  ( 0.0000000000000000000, 0.0000000000000000000, 1.000000000000000000 ) ) ;
#273 = ORIENTED_EDGE ( 'NONE', *, *, #172, .F. ) ;
#274 = LINE ( 'NONE', #222, #218 ) ;
#275 = VECTOR ( 'NONE', #9, 1000.000000000000000 ) ;
#276 = LINE ( 'NONE', #61, #294 ) ;
#277 = DIRECTION ( 'NONE',  ( -1.000000000000000000, 0.0000000000000000000, 5.551115123125781500E-017 ) ) ;
#278 = ADVANCED_FACE ( 'NONE', ( #267 ), #300, .T. ) ;
#279 = VERTEX_POINT ( 'NONE', #81 ) ;
#280 = PERSON_AND_ORGANIZATION ( #270, #259 ) ;
#281 = ADVANCED_FACE ( 'NONE', ( #3 ), #84, .T. ) ;
#282 = CARTESIAN_POINT ( 'NONE',  ( -35.35533905932756200, 3.891179526048115600E-015, 25.00000000000001100 ) ) ;
#283 = CARTESIAN_POINT ( 'NONE',  ( 35.35533905932756200, 0.0000000000000000000, 25.00000000000000400 ) ) ;
#284 = CARTESIAN_POINT ( 'NONE',  ( -35.35533905932755500, 0.0000000000000000000, 25.00000000000000000 ) ) ;
#285 = VECTOR ( 'NONE', #112, 1000.000000000000000 ) ;
#286 = CARTESIAN_POINT ( 'NONE',  ( -3.444068010797414800E-016, -35.35533905932718600, 25.00000000000000700 ) ) ;
#287 = VECTOR ( 'NONE', #216, 1000.000000000000000 ) ;
#288 = CARTESIAN_POINT ( 'NONE',  ( 0.0000000000000000000, 0.0000000000000000000, -25.00000000000000000 ) ) ;
#289 = EDGE_LOOP ( 'NONE', ( #206, #320, #97, #131 ) ) ;
#290 = APPROVAL_PERSON_ORGANIZATION ( #137, #230, #293 ) ;
#291 = FACE_OUTER_BOUND ( 'NONE', #143, .T. ) ;
#292 = PERSON_AND_ORGANIZATION_ROLE ( 'design_supplier' ) ;
#293 = APPROVAL_ROLE ( '' ) ;
#294 = VECTOR ( 'NONE', #80, 1000.000000000000000 ) ;
#295 = APPROVAL_ROLE ( '' ) ;
#296 = ORIENTED_EDGE ( 'NONE', *, *, #172, .T. ) ;
#297 = PLANE ( 'NONE',  #133 ) ;
#298 = MANIFOLD_SOLID_BREP ( '50x50 Right Angle Prism Master-2-solid1', #251 ) ;
#299 = AXIS2_PLACEMENT_3D ( 'NONE', #149, #171, #50 ) ;
#300 = PLANE ( 'NONE',  #170 ) ;
#301 = ORIENTED_EDGE ( 'NONE', *, *, #33, .F. ) ;
#302 = COORDINATED_UNIVERSAL_TIME_OFFSET ( 5, 0, .BEHIND. ) ;
#303 = ADVANCED_FACE ( 'NONE', ( #58 ), #297, .F. ) ;
#304 = EDGE_CURVE ( 'NONE', #105, #73, #274, .T. ) ;
#305 = DIRECTION ( 'NONE',  ( 1.000000000000000000, -5.502958859365729400E-017, 0.0000000000000000000 ) ) ;
#306 = ADVANCED_FACE ( 'NONE', ( #192 ), #220, .F. ) ;
#307 = DIRECTION ( 'NONE',  ( -0.7071067811865511300, 0.7071067811865440200, 0.0000000000000000000 ) ) ;
#308 = CARTESIAN_POINT ( 'NONE',  ( 1.732185581861186800E-015, 35.35533905932718600, -25.00000000000000000 ) ) ;
#309 = CARTESIAN_POINT ( 'NONE',  ( -3.444068010797414800E-016, -35.35533905932718600, 25.00000000000000700 ) ) ;
#310 = ORIENTED_EDGE ( 'NONE', *, *, #163, .F. ) ;
#311 = ORIENTED_EDGE ( 'NONE', *, *, #76, .F. ) ;
#312 = DIRECTION ( 'NONE',  ( -5.502958859365728200E-017, -1.000000000000000000, 3.054755814616409400E-033 ) ) ;
#313 = CC_DESIGN_PERSON_AND_ORGANIZATION_ASSIGNMENT ( #182, #268, ( #107 ) ) ;
#314 = DIRECTION ( 'NONE',  ( -0.7071067811865511300, 0.7071067811865440200, 0.0000000000000000000 ) ) ;
#315 = LINE ( 'NONE', #308, #249 ) ;
#316 = SECURITY_CLASSIFICATION_LEVEL ( 'unclassified' ) ;
#317 = PERSON_AND_ORGANIZATION ( #270, #259 ) ;
#318 = LINE ( 'NONE', #108, #261 ) ;
#319 = APPLICATION_CONTEXT ( 'configuration controlled 3d designs of mechanical parts and assemblies' ) ;
#320 = ORIENTED_EDGE ( 'NONE', *, *, #91, .F. ) ;
#321 = LINE ( 'NONE', #265, #30 ) ;
ENDSEC;
END-ISO-10303-21;
