ISO-10303-21;
HEADER;
FILE_DESCRIPTION (( 'STEP AP203' ),
    '1' );
FILE_NAME ('Web Model 14956_14982.step',
    '2020-07-27T18:27:02',
    ( '' ),
    ( '' ),
    'SwSTEP 2.0',
    'SolidWorks 2018',
    '' );
FILE_SCHEMA (( 'CONFIG_CONTROL_DESIGN' ));
ENDSEC;

DATA;
#1 = DIRECTION ( 'NONE',  ( 1.000000000000000000, 0.0000000000000000000, 0.0000000000000000000 ) ) ;
#2 = ORIENTED_EDGE ( 'NONE', *, *, #90, .T. ) ;
#3 = EDGE_CURVE ( 'NONE', #86, #103, #89, .T. ) ;
#4 = CARTESIAN_POINT ( 'NONE',  ( 0.5000000000000000000, 0.0000000000000000000, 0.0000000000000000000 ) ) ;
#5 = ORIENTED_EDGE ( 'NONE', *, *, #100, .T. ) ;
#6 = PLANE ( 'NONE',  #143 ) ;
#7 = EDGE_LOOP ( 'NONE', ( #5, #155 ) ) ;
#8 = CALENDAR_DATE ( 2020, 27, 7 ) ;
#9 = CC_DESIGN_DATE_AND_TIME_ASSIGNMENT ( #25, #134, ( #148 ) ) ;
#10 =( NAMED_UNIT ( * ) SI_UNIT ( $, .STERADIAN. ) SOLID_ANGLE_UNIT ( ) );
#11 = APPROVAL_STATUS ( 'not_yet_approved' ) ;
#12 = APPLICATION_CONTEXT ( 'configuration controlled 3d designs of mechanical parts and assemblies' ) ;
#13 = AXIS2_PLACEMENT_3D ( 'NONE', #137, #150, #120 ) ;
#14 = LOCAL_TIME ( 14, 27, 2.000000000000000000, #123 ) ;
#15 = MECHANICAL_CONTEXT ( 'NONE', #12, 'mechanical' ) ;
#16 = FACE_OUTER_BOUND ( 'NONE', #63, .T. ) ;
#17 = PERSON_AND_ORGANIZATION ( #172, #105 ) ;
#18 = CALENDAR_DATE ( 2020, 27, 7 ) ;
#19 = FACE_OUTER_BOUND ( 'NONE', #7, .T. ) ;
#20 = DATE_AND_TIME ( #8, #45 ) ;
#21 = COORDINATED_UNIVERSAL_TIME_OFFSET ( 5, 0, .BEHIND. ) ;
#22 = CARTESIAN_POINT ( 'NONE',  ( 0.5000000000000000000, 0.0000000000000000000, 5.000000000000000000 ) ) ;
#23 = FACE_OUTER_BOUND ( 'NONE', #167, .T. ) ;
#24 = COORDINATED_UNIVERSAL_TIME_OFFSET ( 5, 0, .BEHIND. ) ;
#25 = DATE_AND_TIME ( #64, #54 ) ;
#26 = AXIS2_PLACEMENT_3D ( 'NONE', #4, #104, #102 ) ;
#27 = ADVANCED_FACE ( 'NONE', ( #23 ), #6, .F. ) ;
#28 = APPLICATION_PROTOCOL_DEFINITION ( 'international standard', 'config_control_design', 1994, #122 ) ;
#29 = CARTESIAN_POINT ( 'NONE',  ( 0.5000000000000000000, 0.0000000000000000000, 0.0000000000000000000 ) ) ;
#30 = AXIS2_PLACEMENT_3D ( 'NONE', #127, #31, #139 ) ;
#31 = DIRECTION ( 'NONE',  ( 1.000000000000000000, 0.0000000000000000000, 0.0000000000000000000 ) ) ;
#32 = PRODUCT_DEFINITION ( 'UNKNOWN', '', #74, #47 ) ;
#33 = DIRECTION ( 'NONE',  ( 0.0000000000000000000, 0.0000000000000000000, -1.000000000000000000 ) ) ;
#34 = APPROVAL_DATE_TIME ( #58, #110 ) ;
#35 = ORIENTED_EDGE ( 'NONE', *, *, #100, .F. ) ;
#36 = DIRECTION ( 'NONE',  ( -1.000000000000000000, -0.0000000000000000000, -0.0000000000000000000 ) ) ;
#37 = EDGE_CURVE ( 'NONE', #133, #95, #44, .T. ) ;
#38 = DIRECTION ( 'NONE',  ( 1.000000000000000000, 0.0000000000000000000, 0.0000000000000000000 ) ) ;
#39 = ORIENTED_EDGE ( 'NONE', *, *, #114, .F. ) ;
#40 =( LENGTH_UNIT ( ) NAMED_UNIT ( * ) SI_UNIT ( .MILLI., .METRE. ) );
#41 = PERSON_AND_ORGANIZATION_ROLE ( 'classification_officer' ) ;
#42 = SECURITY_CLASSIFICATION_LEVEL ( 'unclassified' ) ;
#43 = CARTESIAN_POINT ( 'NONE',  ( 0.5000000000000000000, 6.123233995736766282E-16, -5.000000000000000000 ) ) ;
#44 = CIRCLE ( 'NONE', #30, 5.000000000000000000 ) ;
#45 = LOCAL_TIME ( 14, 27, 2.000000000000000000, #165 ) ;
#46 = COORDINATED_UNIVERSAL_TIME_OFFSET ( 5, 0, .BEHIND. ) ;
#47 = DESIGN_CONTEXT ( 'detailed design', #122, 'design' ) ;
#48 = ADVANCED_BREP_SHAPE_REPRESENTATION ( 'Web Model 14956_14982', ( #109, #70 ), #138 ) ;
#49 = FACE_OUTER_BOUND ( 'NONE', #173, .T. ) ;
#50 = CARTESIAN_POINT ( 'NONE',  ( 0.5000000000000000000, 0.0000000000000000000, 5.000000000000000000 ) ) ;
#51 = APPROVAL_DATE_TIME ( #84, #55 ) ;
#52 = CC_DESIGN_APPROVAL ( #110, ( #32 ) ) ;
#53 = PERSON_AND_ORGANIZATION ( #172, #105 ) ;
#54 = LOCAL_TIME ( 14, 27, 2.000000000000000000, #21 ) ;
#55 = APPROVAL ( #56, 'UNSPECIFIED' ) ;
#56 = APPROVAL_STATUS ( 'not_yet_approved' ) ;
#57 = CYLINDRICAL_SURFACE ( 'NONE', #26, 5.000000000000000000 ) ;
#58 = DATE_AND_TIME ( #92, #162 ) ;
#59 = LOCAL_TIME ( 14, 27, 2.000000000000000000, #46 ) ;
#60 = PRODUCT_RELATED_PRODUCT_CATEGORY ( 'detail', '', ( #113 ) ) ;
#61 = AXIS2_PLACEMENT_3D ( 'NONE', #118, #106, #82 ) ;
#62 = DIRECTION ( 'NONE',  ( 0.0000000000000000000, 0.0000000000000000000, -1.000000000000000000 ) ) ;
#63 = EDGE_LOOP ( 'NONE', ( #169, #35, #108, #166 ) ) ;
#64 = CALENDAR_DATE ( 2020, 27, 7 ) ;
#65 = VECTOR ( 'NONE', #144, 1000.000000000000000 ) ;
#66 = CARTESIAN_POINT ( 'NONE',  ( -0.5000000000000000000, 0.0000000000000000000, 5.000000000000000000 ) ) ;
#67 = CC_DESIGN_SECURITY_CLASSIFICATION ( #148, ( #74 ) ) ;
#68 = ADVANCED_FACE ( 'NONE', ( #19 ), #77, .T. ) ;
#69 = APPROVAL_ROLE ( '' ) ;
#70 = AXIS2_PLACEMENT_3D ( 'NONE', #174, #71, #38 ) ;
#71 = DIRECTION ( 'NONE',  ( 0.0000000000000000000, 0.0000000000000000000, 1.000000000000000000 ) ) ;
#72 = PERSON_AND_ORGANIZATION ( #172, #105 ) ;
#73 = APPROVAL_ROLE ( '' ) ;
#74 = PRODUCT_DEFINITION_FORMATION_WITH_SPECIFIED_SOURCE ( 'ANY', '', #113, .NOT_KNOWN. ) ;
#75 = PERSON_AND_ORGANIZATION ( #172, #105 ) ;
#76 = DIRECTION ( 'NONE',  ( 1.000000000000000000, 0.0000000000000000000, 0.0000000000000000000 ) ) ;
#77 = PLANE ( 'NONE',  #170 ) ;
#78 = LINE ( 'NONE', #50, #65 ) ;
#79 = EDGE_CURVE ( 'NONE', #95, #103, #78, .T. ) ;
#80 = ORIENTED_EDGE ( 'NONE', *, *, #3, .T. ) ;
#81 = APPROVAL_PERSON_ORGANIZATION ( #171, #125, #93 ) ;
#82 = DIRECTION ( 'NONE',  ( 0.0000000000000000000, 0.0000000000000000000, -1.000000000000000000 ) ) ;
#83 = CIRCLE ( 'NONE', #13, 5.000000000000000000 ) ;
#84 = DATE_AND_TIME ( #18, #59 ) ;
#85 = CC_DESIGN_APPROVAL ( #125, ( #74 ) ) ;
#86 = VERTEX_POINT ( 'NONE', #129 ) ;
#87 = PERSON_AND_ORGANIZATION ( #172, #105 ) ;
#88 = DIRECTION ( 'NONE',  ( -1.000000000000000000, -0.0000000000000000000, -0.0000000000000000000 ) ) ;
#89 = CIRCLE ( 'NONE', #61, 5.000000000000000000 ) ;
#90 = EDGE_CURVE ( 'NONE', #133, #86, #124, .T. ) ;
#91 = UNCERTAINTY_MEASURE_WITH_UNIT (LENGTH_MEASURE( 1.000000000000000082E-05 ), #40, 'distance_accuracy_value', 'NONE');
#92 = CALENDAR_DATE ( 2020, 27, 7 ) ;
#93 = APPROVAL_ROLE ( '' ) ;
#94 = ADVANCED_FACE ( 'NONE', ( #49 ), #57, .T. ) ;
#95 = VERTEX_POINT ( 'NONE', #22 ) ;
#96 = APPLICATION_PROTOCOL_DEFINITION ( 'international standard', 'config_control_design', 1994, #12 ) ;
#97 = PERSON_AND_ORGANIZATION ( #172, #105 ) ;
#98 = CC_DESIGN_PERSON_AND_ORGANIZATION_ASSIGNMENT ( #87, #119, ( #74 ) ) ;
#99 = ORIENTED_EDGE ( 'NONE', *, *, #3, .F. ) ;
#100 = EDGE_CURVE ( 'NONE', #95, #133, #115, .T. ) ;
#101 = DIRECTION ( 'NONE',  ( 1.000000000000000000, 0.0000000000000000000, 0.0000000000000000000 ) ) ;
#102 = DIRECTION ( 'NONE',  ( 0.0000000000000000000, 0.0000000000000000000, 1.000000000000000000 ) ) ;
#103 = VERTEX_POINT ( 'NONE', #66 ) ;
#104 = DIRECTION ( 'NONE',  ( -1.000000000000000000, -0.0000000000000000000, -0.0000000000000000000 ) ) ;
#105 = ORGANIZATION ( 'UNSPECIFIED', 'UNSPECIFIED', '' ) ;
#106 = DIRECTION ( 'NONE',  ( 1.000000000000000000, 0.0000000000000000000, 0.0000000000000000000 ) ) ;
#107 = CC_DESIGN_DATE_AND_TIME_ASSIGNMENT ( #117, #136, ( #32 ) ) ;
#108 = ORIENTED_EDGE ( 'NONE', *, *, #79, .T. ) ;
#109 = MANIFOLD_SOLID_BREP ( 'Boss-Extrude1', #152 ) ;
#110 = APPROVAL ( #131, 'UNSPECIFIED' ) ;
#111 = CALENDAR_DATE ( 2020, 27, 7 ) ;
#112 = CARTESIAN_POINT ( 'NONE',  ( 0.5000000000000000000, 0.0000000000000000000, 0.0000000000000000000 ) ) ;
#113 = PRODUCT ( 'Web Model 14956_14982', 'Web Model 14956_14982', '', ( #15 ) ) ;
#114 = EDGE_CURVE ( 'NONE', #103, #86, #83, .T. ) ;
#115 = CIRCLE ( 'NONE', #153, 5.000000000000000000 ) ;
#116 = AXIS2_PLACEMENT_3D ( 'NONE', #112, #36, #154 ) ;
#117 = DATE_AND_TIME ( #111, #14 ) ;
#118 = CARTESIAN_POINT ( 'NONE',  ( -0.5000000000000000000, 0.0000000000000000000, 0.0000000000000000000 ) ) ;
#119 = PERSON_AND_ORGANIZATION_ROLE ( 'creator' ) ;
#120 = DIRECTION ( 'NONE',  ( 0.0000000000000000000, 0.0000000000000000000, -1.000000000000000000 ) ) ;
#121 = VECTOR ( 'NONE', #88, 1000.000000000000000 ) ;
#122 = APPLICATION_CONTEXT ( 'configuration controlled 3d designs of mechanical parts and assemblies' ) ;
#123 = COORDINATED_UNIVERSAL_TIME_OFFSET ( 5, 0, .BEHIND. ) ;
#124 = LINE ( 'NONE', #43, #121 ) ;
#125 = APPROVAL ( #11, 'UNSPECIFIED' ) ;
#126 = ORIENTED_EDGE ( 'NONE', *, *, #37, .F. ) ;
#127 = CARTESIAN_POINT ( 'NONE',  ( 0.5000000000000000000, 0.0000000000000000000, 0.0000000000000000000 ) ) ;
#128 = CC_DESIGN_PERSON_AND_ORGANIZATION_ASSIGNMENT ( #17, #158, ( #32 ) ) ;
#129 = CARTESIAN_POINT ( 'NONE',  ( -0.5000000000000000000, 6.123233995736766282E-16, -5.000000000000000000 ) ) ;
#130 = CARTESIAN_POINT ( 'NONE',  ( -0.5000000000000000000, 0.0000000000000000000, 0.0000000000000000000 ) ) ;
#131 = APPROVAL_STATUS ( 'not_yet_approved' ) ;
#132 = ADVANCED_FACE ( 'NONE', ( #16 ), #156, .T. ) ;
#133 = VERTEX_POINT ( 'NONE', #175 ) ;
#134 = DATE_TIME_ROLE ( 'classification_date' ) ;
#135 = CC_DESIGN_APPROVAL ( #55, ( #148 ) ) ;
#136 = DATE_TIME_ROLE ( 'creation_date' ) ;
#137 = CARTESIAN_POINT ( 'NONE',  ( -0.5000000000000000000, 0.0000000000000000000, 0.0000000000000000000 ) ) ;
#138 =( GEOMETRIC_REPRESENTATION_CONTEXT ( 3 ) GLOBAL_UNCERTAINTY_ASSIGNED_CONTEXT ( ( #91 ) ) GLOBAL_UNIT_ASSIGNED_CONTEXT ( ( #40, #145, #10 ) ) REPRESENTATION_CONTEXT ( 'NONE', 'WORKASPACE' ) );
#139 = DIRECTION ( 'NONE',  ( 0.0000000000000000000, 0.0000000000000000000, -1.000000000000000000 ) ) ;
#140 = PERSON_AND_ORGANIZATION ( #172, #105 ) ;
#141 = CARTESIAN_POINT ( 'NONE',  ( 0.5000000000000000000, 0.0000000000000000000, 0.0000000000000000000 ) ) ;
#142 = CC_DESIGN_PERSON_AND_ORGANIZATION_ASSIGNMENT ( #53, #146, ( #74 ) ) ;
#143 = AXIS2_PLACEMENT_3D ( 'NONE', #130, #1, #62 ) ;
#144 = DIRECTION ( 'NONE',  ( -1.000000000000000000, -0.0000000000000000000, -0.0000000000000000000 ) ) ;
#145 =( NAMED_UNIT ( * ) PLANE_ANGLE_UNIT ( ) SI_UNIT ( $, .RADIAN. ) );
#146 = PERSON_AND_ORGANIZATION_ROLE ( 'design_supplier' ) ;
#147 = PRODUCT_DEFINITION_SHAPE ( 'NONE', 'NONE',  #32 ) ;
#148 = SECURITY_CLASSIFICATION ( '', '', #42 ) ;
#149 = DIRECTION ( 'NONE',  ( 0.0000000000000000000, 0.0000000000000000000, -1.000000000000000000 ) ) ;
#150 = DIRECTION ( 'NONE',  ( 1.000000000000000000, 0.0000000000000000000, 0.0000000000000000000 ) ) ;
#151 = SHAPE_DEFINITION_REPRESENTATION ( #147, #48 ) ;
#152 = CLOSED_SHELL ( 'NONE', ( #94, #132, #68, #27 ) ) ;
#153 = AXIS2_PLACEMENT_3D ( 'NONE', #29, #76, #149 ) ;
#154 = DIRECTION ( 'NONE',  ( 0.0000000000000000000, 0.0000000000000000000, 1.000000000000000000 ) ) ;
#155 = ORIENTED_EDGE ( 'NONE', *, *, #37, .T. ) ;
#156 = CYLINDRICAL_SURFACE ( 'NONE', #116, 5.000000000000000000 ) ;
#157 = APPROVAL_DATE_TIME ( #20, #125 ) ;
#158 = PERSON_AND_ORGANIZATION_ROLE ( 'creator' ) ;
#159 = CC_DESIGN_PERSON_AND_ORGANIZATION_ASSIGNMENT ( #97, #41, ( #148 ) ) ;
#160 = PERSON_AND_ORGANIZATION_ROLE ( 'design_owner' ) ;
#161 = ORIENTED_EDGE ( 'NONE', *, *, #79, .F. ) ;
#162 = LOCAL_TIME ( 14, 27, 2.000000000000000000, #24 ) ;
#163 = APPROVAL_PERSON_ORGANIZATION ( #140, #55, #73 ) ;
#164 = CC_DESIGN_PERSON_AND_ORGANIZATION_ASSIGNMENT ( #72, #160, ( #113 ) ) ;
#165 = COORDINATED_UNIVERSAL_TIME_OFFSET ( 5, 0, .BEHIND. ) ;
#166 = ORIENTED_EDGE ( 'NONE', *, *, #114, .T. ) ;
#167 = EDGE_LOOP ( 'NONE', ( #39, #99 ) ) ;
#168 = APPROVAL_PERSON_ORGANIZATION ( #75, #110, #69 ) ;
#169 = ORIENTED_EDGE ( 'NONE', *, *, #90, .F. ) ;
#170 = AXIS2_PLACEMENT_3D ( 'NONE', #141, #101, #33 ) ;
#171 = PERSON_AND_ORGANIZATION ( #172, #105 ) ;
#172 = PERSON ( 'UNSPECIFIED', 'UNSPECIFIED', 'UNSPECIFIED', ('UNSPECIFIED'), ('UNSPECIFIED'), ('UNSPECIFIED') ) ;
#173 = EDGE_LOOP ( 'NONE', ( #126, #2, #80, #161 ) ) ;
#174 = CARTESIAN_POINT ( 'NONE',  ( 0.0000000000000000000, 0.0000000000000000000, 0.0000000000000000000 ) ) ;
#175 = CARTESIAN_POINT ( 'NONE',  ( 0.5000000000000000000, 6.123233995736766282E-16, -5.000000000000000000 ) ) ;
ENDSEC;
END-ISO-10303-21;
