ISO-10303-21;
HEADER;
FILE_DESCRIPTION (( 'STEP AP203' ),
    '1' );
FILE_NAME ('22003-E0W.STEP',
    '2018-06-01T18:12:45',
    ( 'admin' ),
    ( '' ),
    'SwSTEP 2.0',
    'SolidWorks 2016',
    '' );
FILE_SCHEMA (( 'CONFIG_CONTROL_DESIGN' ));
ENDSEC;

DATA;
#1 = DESIGN_CONTEXT ( 'detailed design', #97, 'design' ) ;
#2 = VERTEX_POINT ( 'NONE', #189 ) ;
#3 = DIRECTION ( 'NONE',  ( 0.0000000000000000000, 1.000000000000000000, 1.674403104149810500E-016 ) ) ;
#4 = EDGE_LOOP ( 'NONE', ( #250, #262, #319 ) ) ;
#5 = ADVANCED_FACE ( 'NONE', ( #21 ), #78, .T. ) ;
#6 = PERSON_AND_ORGANIZATION_ROLE ( 'design_owner' ) ;
#7 = ADVANCED_FACE ( 'NONE', ( #304 ), #141, .T. ) ;
#8 = CARTESIAN_POINT ( 'NONE',  ( 0.0000000000000000000, 2.067936161794495200E-017, -0.07308856274740820100 ) ) ;
#9 = CC_DESIGN_APPROVAL ( #19, ( #30 ) ) ;
#10 = CARTESIAN_POINT ( 'NONE',  ( 0.0000000000000000000, 0.0000000000000000000, 1.671023789719627800 ) ) ;
#11 = APPROVAL ( #216, 'UNSPECIFIED' ) ;
#12 = DIRECTION ( 'NONE',  ( 0.0000000000000000000, -1.000000000000000000, -1.609709418279662700E-016 ) ) ;
#13 = CC_DESIGN_DATE_AND_TIME_ASSIGNMENT ( #285, #124, ( #62 ) ) ;
#14 =( NAMED_UNIT ( * ) PLANE_ANGLE_UNIT ( ) SI_UNIT ( $, .RADIAN. ) );
#15 = MECHANICAL_CONTEXT ( 'NONE', #68, 'mechanical' ) ;
#16 = DATE_AND_TIME ( #127, #114 ) ;
#17 = ORIENTED_EDGE ( 'NONE', *, *, #298, .F. ) ;
#18 = ORIENTED_EDGE ( 'NONE', *, *, #302, .T. ) ;
#19 = APPROVAL ( #225, 'UNSPECIFIED' ) ;
#20 = VERTEX_POINT ( 'NONE', #178 ) ;
#21 = FACE_OUTER_BOUND ( 'NONE', #34, .T. ) ;
#22 = APPROVAL_DATE_TIME ( #205, #19 ) ;
#23 = CIRCLE ( 'NONE', #190, 0.4944322300693972900 ) ;
#24 = ORGANIZATION ( 'UNSPECIFIED', 'UNSPECIFIED', '' ) ;
#25 = EDGE_LOOP ( 'NONE', ( #236, #43, #31, #36 ) ) ;
#26 = VERTEX_POINT ( 'NONE', #240 ) ;
#27 = FACE_OUTER_BOUND ( 'NONE', #94, .T. ) ;
#28 = SPHERICAL_SURFACE ( 'NONE', #211, 1.631535433070865800 ) ;
#29 = PERSON_AND_ORGANIZATION ( #57, #24 ) ;
#30 = PRODUCT_DEFINITION ( 'UNKNOWN', '', #161, #1 ) ;
#31 = ORIENTED_EDGE ( 'NONE', *, *, #309, .F. ) ;
#32 = CC_DESIGN_PERSON_AND_ORGANIZATION_ASSIGNMENT ( #29, #6, ( #146 ) ) ;
#33 = CIRCLE ( 'NONE', #66, 0.5000000000000000000 ) ;
#34 = EDGE_LOOP ( 'NONE', ( #237, #39, #313, #160 ) ) ;
#35 = AXIS2_PLACEMENT_3D ( 'NONE', #226, #53, #44 ) ;
#36 = ORIENTED_EDGE ( 'NONE', *, *, #294, .F. ) ;
#37 = ORIENTED_EDGE ( 'NONE', *, *, #298, .T. ) ;
#38 = SPHERICAL_SURFACE ( 'NONE', #220, 1.631535433070865800 ) ;
#39 = ORIENTED_EDGE ( 'NONE', *, *, #275, .F. ) ;
#40 = APPROVAL_ROLE ( '' ) ;
#41 = DIRECTION ( 'NONE',  ( 0.0000000000000000000, -0.6529511580193483300, 0.7574000166630523400 ) ) ;
#42 = CC_DESIGN_PERSON_AND_ORGANIZATION_ASSIGNMENT ( #155, #305, ( #62 ) ) ;
#43 = ORIENTED_EDGE ( 'NONE', *, *, #310, .T. ) ;
#44 = DIRECTION ( 'NONE',  ( 1.000000000000000000, 0.0000000000000000000, 0.0000000000000000000 ) ) ;
#45 = APPLICATION_PROTOCOL_DEFINITION ( 'international standard', 'config_control_design', 1994, #97 ) ;
#46 = CARTESIAN_POINT ( 'NONE',  ( 0.0000000000000000000, -1.409314748703035800E-017, 0.1162104120969813900 ) ) ;
#47 = SHAPE_DEFINITION_REPRESENTATION ( #196, #148 ) ;
#48 = VECTOR ( 'NONE', #119, 39.37007874015748100 ) ;
#49 = ORIENTED_EDGE ( 'NONE', *, *, #267, .T. ) ;
#50 = ORIENTED_EDGE ( 'NONE', *, *, #325, .F. ) ;
#51 = DIRECTION ( 'NONE',  ( -0.0000000000000000000, -1.836909530733566100E-016, 1.000000000000000000 ) ) ;
#52 = DIRECTION ( 'NONE',  ( 0.0000000000000000000, -1.000000000000000000, -1.878145495644180800E-016 ) ) ;
#53 = DIRECTION ( 'NONE',  ( 0.0000000000000000000, 0.0000000000000000000, 1.000000000000000000 ) ) ;
#54 = EDGE_CURVE ( 'NONE', #64, #296, #98, .T. ) ;
#55 =( GEOMETRIC_REPRESENTATION_CONTEXT ( 3 ) GLOBAL_UNCERTAINTY_ASSIGNED_CONTEXT ( ( #252 ) ) GLOBAL_UNIT_ASSIGNED_CONTEXT ( ( #242, #14, #324 ) ) REPRESENTATION_CONTEXT ( 'NONE', 'WORKASPACE' ) );
#56 = CARTESIAN_POINT ( 'NONE',  ( 6.123233995736766000E-017, 0.5000000000000000000, -0.07308856274740811700 ) ) ;
#57 = PERSON ( 'UNSPECIFIED', 'UNSPECIFIED', 'UNSPECIFIED', ('UNSPECIFIED'), ('UNSPECIFIED'), ('UNSPECIFIED') ) ;
#58 = CARTESIAN_POINT ( 'NONE',  ( 0.0000000000000000000, -1.307039852198475500E-017, 0.1106426421663786200 ) ) ;
#59 = AXIS2_PLACEMENT_3D ( 'NONE', #103, #51, #84 ) ;
#60 = CALENDAR_DATE ( 2018, 1, 6 ) ;
#61 = CARTESIAN_POINT ( 'NONE',  ( 0.0000000000000000000, -0.5000000000000000000, -0.07308856274740828400 ) ) ;
#62 = SECURITY_CLASSIFICATION ( '', '', #284 ) ;
#63 = APPROVAL_PERSON_ORGANIZATION ( #109, #11, #329 ) ;
#64 = VERTEX_POINT ( 'NONE', #67 ) ;
#65 = ORIENTED_EDGE ( 'NONE', *, *, #201, .F. ) ;
#66 = AXIS2_PLACEMENT_3D ( 'NONE', #106, #268, #125 ) ;
#67 = CARTESIAN_POINT ( 'NONE',  ( 0.0000000000000000000, 3.996010309640252900E-016, 0.03948835664876190100 ) ) ;
#68 = APPLICATION_CONTEXT ( 'configuration controlled 3d designs of mechanical parts and assemblies' ) ;
#69 = CC_DESIGN_PERSON_AND_ORGANIZATION_ASSIGNMENT ( #200, #258, ( #161 ) ) ;
#70 = ORIENTED_EDGE ( 'NONE', *, *, #287, .F. ) ;
#71 = EDGE_LOOP ( 'NONE', ( #152, #289, #49 ) ) ;
#72 = DIRECTION ( 'NONE',  ( -1.000000000000000000, 0.0000000000000000000, 0.0000000000000000000 ) ) ;
#73 = ADVANCED_FACE ( 'NONE', ( #104 ), #312, .T. ) ;
#74 = ADVANCED_FACE ( 'NONE', ( #278 ), #38, .F. ) ;
#75 = AXIS2_PLACEMENT_3D ( 'NONE', #233, #173, #256 ) ;
#76 = CALENDAR_DATE ( 2018, 1, 6 ) ;
#77 = APPROVAL_DATE_TIME ( #130, #11 ) ;
#78 = CONICAL_SURFACE ( 'NONE', #195, 0.5000000000000001100, 0.7853981633974452800 ) ;
#79 = ORIENTED_EDGE ( 'NONE', *, *, #276, .F. ) ;
#80 = CC_DESIGN_PERSON_AND_ORGANIZATION_ASSIGNMENT ( #228, #222, ( #161 ) ) ;
#81 = AXIS2_PLACEMENT_3D ( 'NONE', #316, #199, #118 ) ;
#82 = ORIENTED_EDGE ( 'NONE', *, *, #279, .T. ) ;
#83 = DIMENSIONAL_EXPONENTS ( 1.000000000000000000, 0.0000000000000000000, 0.0000000000000000000, 0.0000000000000000000, 0.0000000000000000000, 0.0000000000000000000, 0.0000000000000000000 ) ;
#84 = DIRECTION ( 'NONE',  ( 0.0000000000000000000, -1.000000000000000000, -1.726631975225924500E-016 ) ) ;
#85 = DATE_AND_TIME ( #213, #151 ) ;
#86 = CARTESIAN_POINT ( 'NONE',  ( 0.0000000000000000000, 0.0000000000000000000, 3.276220640113328900 ) ) ;
#87 = AXIS2_PLACEMENT_3D ( 'NONE', #163, #301, #192 ) ;
#88 = VERTEX_POINT ( 'NONE', #56 ) ;
#89 = DIRECTION ( 'NONE',  ( -0.0000000000000000000, -1.836909530733566100E-016, 1.000000000000000000 ) ) ;
#90 = ORIENTED_EDGE ( 'NONE', *, *, #293, .T. ) ;
#91 = ORIENTED_EDGE ( 'NONE', *, *, #294, .T. ) ;
#92 = COORDINATED_UNIVERSAL_TIME_OFFSET ( 5, 0, .BEHIND. ) ;
#93 = AXIS2_PLACEMENT_3D ( 'NONE', #322, #318, #179 ) ;
#94 = EDGE_LOOP ( 'NONE', ( #79, #147, #177 ) ) ;
#95 = PERSON_AND_ORGANIZATION_ROLE ( 'creator' ) ;
#96 = DIRECTION ( 'NONE',  ( 0.0000000000000000000, 0.0000000000000000000, 1.000000000000000000 ) ) ;
#97 = APPLICATION_CONTEXT ( 'configuration controlled 3d designs of mechanical parts and assemblies' ) ;
#98 = CIRCLE ( 'NONE', #264, 1.631535433070865800 ) ;
#99 = ORIENTED_EDGE ( 'NONE', *, *, #308, .T. ) ;
#100 = DIRECTION ( 'NONE',  ( -1.000000000000000000, 0.0000000000000000000, -0.0000000000000000000 ) ) ;
#101 = CARTESIAN_POINT ( 'NONE',  ( 0.0000000000000000000, 0.0000000000000000000, 3.276220640113328900 ) ) ;
#102 = LOCAL_TIME ( 14, 12, 45.00000000000000000, #92 ) ;
#103 = CARTESIAN_POINT ( 'NONE',  ( 0.0000000000000000000, -1.409314748703035800E-017, 0.1162104120969813900 ) ) ;
#104 = FACE_OUTER_BOUND ( 'NONE', #219, .T. ) ;
#105 = CARTESIAN_POINT ( 'NONE',  ( 0.0000000000000000000, -0.5000000000000000000, 0.03948835664876179000 ) ) ;
#106 = CARTESIAN_POINT ( 'NONE',  ( 0.0000000000000000000, 2.067936161794493300E-017, -0.07308856274740821400 ) ) ;
#107 = CARTESIAN_POINT ( 'NONE',  ( 0.0000000000000000000, -0.4922209950606588600, -0.08211193057257872000 ) ) ;
#108 = CIRCLE ( 'NONE', #122, 3.394212598425197000 ) ;
#109 = PERSON_AND_ORGANIZATION ( #57, #24 ) ;
#110 = EDGE_LOOP ( 'NONE', ( #50, #90, #37, #168 ) ) ;
#111 = AXIS2_PLACEMENT_3D ( 'NONE', #58, #330, #271 ) ;
#112 = DIRECTION ( 'NONE',  ( 7.996345456679522500E-017, 0.6529511580193481100, 0.7574000166630525700 ) ) ;
#113 = CARTESIAN_POINT ( 'NONE',  ( 0.0000000000000000000, 4.156505674239667800E-016, -0.1179919583118678900 ) ) ;
#114 = LOCAL_TIME ( 14, 12, 45.00000000000000000, #234 ) ;
#115 = CARTESIAN_POINT ( 'NONE',  ( 6.123233995736764800E-017, 0.5000000000000000000, -0.07308856274740810300 ) ) ;
#116 = AXIS2_PLACEMENT_3D ( 'NONE', #86, #145, #134 ) ;
#117 = CARTESIAN_POINT ( 'NONE',  ( 6.123233995736767300E-017, -0.5000000000000001100, 0.1106426421663785400 ) ) ;
#118 = DIRECTION ( 'NONE',  ( 1.224646799147353200E-016, 1.000000000000000000, 0.0000000000000000000 ) ) ;
#119 = DIRECTION ( 'NONE',  ( 8.659560562354907000E-017, -0.7071067811865452400, -0.7071067811865497900 ) ) ;
#120 = CARTESIAN_POINT ( 'NONE',  ( 6.027968660741618400E-017, 0.4922209950606600800, -0.08211193057257863700 ) ) ;
#121 = CIRCLE ( 'NONE', #59, 0.4944322300693972900 ) ;
#122 = AXIS2_PLACEMENT_3D ( 'NONE', #101, #100, #96 ) ;
#123 = CARTESIAN_POINT ( 'NONE',  ( 0.0000000000000000000, 0.5000000000000001100, 0.1106426421663787000 ) ) ;
#124 = DATE_TIME_ROLE ( 'classification_date' ) ;
#125 = DIRECTION ( 'NONE',  ( 0.0000000000000000000, -1.000000000000000000, -1.878145495644180800E-016 ) ) ;
#126 = APPLICATION_PROTOCOL_DEFINITION ( 'international standard', 'config_control_design', 1994, #68 ) ;
#127 = CALENDAR_DATE ( 2018, 1, 6 ) ;
#128 = CIRCLE ( 'NONE', #81, 3.394212598425197000 ) ;
#129 = PERSON_AND_ORGANIZATION ( #57, #24 ) ;
#130 = DATE_AND_TIME ( #76, #102 ) ;
#131 = EDGE_LOOP ( 'NONE', ( #326, #82, #17, #133 ) ) ;
#132 = APPROVAL_PERSON_ORGANIZATION ( #129, #19, #299 ) ;
#133 = ORIENTED_EDGE ( 'NONE', *, *, #291, .F. ) ;
#134 = DIRECTION ( 'NONE',  ( 0.0000000000000000000, -1.000000000000000000, -1.609709418279662700E-016 ) ) ;
#135 = DIRECTION ( 'NONE',  ( 0.0000000000000000000, 1.000000000000000000, 1.674403104149810500E-016 ) ) ;
#136 = CYLINDRICAL_SURFACE ( 'NONE', #150, 0.5000000000000000000 ) ;
#137 = EDGE_LOOP ( 'NONE', ( #70, #18, #99 ) ) ;
#138 = CARTESIAN_POINT ( 'NONE',  ( 0.0000000000000000000, 0.0000000000000000000, 0.03948835664876188700 ) ) ;
#139 = SPHERICAL_SURFACE ( 'NONE', #116, 3.394212598425197000 ) ;
#140 = DIRECTION ( 'NONE',  ( 0.0000000000000000000, -1.000000000000000000, -1.878145495644180800E-016 ) ) ;
#141 = SPHERICAL_SURFACE ( 'NONE', #255, 3.394212598425197000 ) ;
#142 = CIRCLE ( 'NONE', #93, 0.5000000000000001100 ) ;
#143 = AXIS2_PLACEMENT_3D ( 'NONE', #210, #165, #253 ) ;
#144 = DIRECTION ( 'NONE',  ( 1.000000000000000000, 0.0000000000000000000, 0.0000000000000000000 ) ) ;
#145 = DIRECTION ( 'NONE',  ( 1.000000000000000000, 0.0000000000000000000, 0.0000000000000000000 ) ) ;
#146 = PRODUCT ( '22003-E0W', '22003-E0W', '', ( #15 ) ) ;
#147 = ORIENTED_EDGE ( 'NONE', *, *, #54, .T. ) ;
#148 = ADVANCED_BREP_SHAPE_REPRESENTATION ( '22003-E0W', ( #215, #35 ), #55 ) ;
#149 = VECTOR ( 'NONE', #112, 39.37007874015748100 ) ;
#150 = AXIS2_PLACEMENT_3D ( 'NONE', #169, #239, #187 ) ;
#151 = LOCAL_TIME ( 14, 12, 45.00000000000000000, #280 ) ;
#152 = ORIENTED_EDGE ( 'NONE', *, *, #302, .F. ) ;
#153 = CARTESIAN_POINT ( 'NONE',  ( 0.0000000000000000000, 2.067936161794495200E-017, -0.07308856274740820100 ) ) ;
#154 = CC_DESIGN_APPROVAL ( #172, ( #161 ) ) ;
#155 = PERSON_AND_ORGANIZATION ( #57, #24 ) ;
#156 = AXIS2_PLACEMENT_3D ( 'NONE', #153, #157, #230 ) ;
#157 = DIRECTION ( 'NONE',  ( -0.0000000000000000000, -1.836909530733585100E-016, 1.000000000000000000 ) ) ;
#158 = DIRECTION ( 'NONE',  ( 0.0000000000000000000, 0.7071067811865454600, -0.7071067811865495700 ) ) ;
#159 = CIRCLE ( 'NONE', #111, 0.5000000000000001100 ) ;
#160 = ORIENTED_EDGE ( 'NONE', *, *, #292, .T. ) ;
#161 = PRODUCT_DEFINITION_FORMATION_WITH_SPECIFIED_SOURCE ( 'ANY', '', #146, .NOT_KNOWN. ) ;
#162 = DIRECTION ( 'NONE',  ( 0.0000000000000000000, 1.000000000000000000, 1.707404996040164000E-016 ) ) ;
#163 = CARTESIAN_POINT ( 'NONE',  ( 0.0000000000000000000, 2.067936161794493300E-017, -0.07308856274740821400 ) ) ;
#164 = ADVANCED_FACE ( 'NONE', ( #27 ), #28, .F. ) ;
#165 = DIRECTION ( 'NONE',  ( -1.000000000000000000, 1.224646799147353200E-016, 2.249565377136128300E-032 ) ) ;
#166 = ORIENTED_EDGE ( 'NONE', *, *, #291, .T. ) ;
#167 = CARTESIAN_POINT ( 'NONE',  ( 6.123233995736766000E-017, 0.5000000000000000000, 0.03948835664876198400 ) ) ;
#168 = ORIENTED_EDGE ( 'NONE', *, *, #282, .F. ) ;
#169 = CARTESIAN_POINT ( 'NONE',  ( 0.0000000000000000000, 0.0000000000000000000, 0.03948835664876188700 ) ) ;
#170 = AXIS2_PLACEMENT_3D ( 'NONE', #138, #224, #140 ) ;
#171 = ORIENTED_EDGE ( 'NONE', *, *, #310, .F. ) ;
#172 = APPROVAL ( #317, 'UNSPECIFIED' ) ;
#173 = DIRECTION ( 'NONE',  ( 0.0000000000000000000, 1.836909530733585100E-016, -1.000000000000000000 ) ) ;
#174 = CC_DESIGN_DATE_AND_TIME_ASSIGNMENT ( #85, #221, ( #30 ) ) ;
#175 = CALENDAR_DATE ( 2018, 1, 6 ) ;
#176 = DIRECTION ( 'NONE',  ( 0.0000000000000000000, -1.000000000000000000, -1.734388631502562400E-016 ) ) ;
#177 = ORIENTED_EDGE ( 'NONE', *, *, #275, .T. ) ;
#178 = CARTESIAN_POINT ( 'NONE',  ( -6.055048479497742100E-017, -0.4944322300693962400, 0.1162104120969813000 ) ) ;
#179 = DIRECTION ( 'NONE',  ( 0.0000000000000000000, -1.000000000000000000, -1.707404996040164000E-016 ) ) ;
#180 = CC_DESIGN_PERSON_AND_ORGANIZATION_ASSIGNMENT ( #181, #95, ( #30 ) ) ;
#181 = PERSON_AND_ORGANIZATION ( #57, #24 ) ;
#182 = CARTESIAN_POINT ( 'NONE',  ( 0.0000000000000000000, -1.307039852198475500E-017, 0.1106426421663786200 ) ) ;
#183 = DIRECTION ( 'NONE',  ( 0.0000000000000000000, -1.000000000000000000, -1.726631975225924500E-016 ) ) ;
#184 = APPROVAL_DATE_TIME ( #16, #172 ) ;
#185 = LINE ( 'NONE', #61, #191 ) ;
#186 = CARTESIAN_POINT ( 'NONE',  ( 0.0000000000000000000, 6.168953106465964300E-016, -0.08211193057257906700 ) ) ;
#187 = DIRECTION ( 'NONE',  ( 0.0000000000000000000, -1.000000000000000000, -1.878145495644180800E-016 ) ) ;
#188 = ADVANCED_FACE ( 'NONE', ( #248 ), #260, .T. ) ;
#189 = CARTESIAN_POINT ( 'NONE',  ( 0.0000000000000000000, -0.5000000000000000000, -0.07308856274740831200 ) ) ;
#190 = AXIS2_PLACEMENT_3D ( 'NONE', #46, #212, #183 ) ;
#191 = VECTOR ( 'NONE', #41, 39.37007874015748100 ) ;
#192 = DIRECTION ( 'NONE',  ( 0.0000000000000000000, -1.000000000000000000, -1.878145495644180800E-016 ) ) ;
#193 = VECTOR ( 'NONE', #158, 39.37007874015748100 ) ;
#194 = AXIS2_PLACEMENT_3D ( 'NONE', #186, #198, #176 ) ;
#195 = AXIS2_PLACEMENT_3D ( 'NONE', #281, #265, #251 ) ;
#196 = PRODUCT_DEFINITION_SHAPE ( 'NONE', 'NONE',  #30 ) ;
#197 = ADVANCED_FACE ( 'NONE', ( #288 ), #297, .T. ) ;
#198 = DIRECTION ( 'NONE',  ( 0.0000000000000000000, 1.836909530733585100E-016, -1.000000000000000000 ) ) ;
#199 = DIRECTION ( 'NONE',  ( 1.000000000000000000, -1.224646799147353200E-016, -2.249565377136128300E-032 ) ) ;
#200 = PERSON_AND_ORGANIZATION ( #57, #24 ) ;
#201 = EDGE_CURVE ( 'NONE', #88, #2, #273, .T. ) ;
#202 = CYLINDRICAL_SURFACE ( 'NONE', #170, 0.5000000000000000000 ) ;
#203 = PERSON_AND_ORGANIZATION ( #57, #24 ) ;
#204 = DIRECTION ( 'NONE',  ( -0.0000000000000000000, -1.836909530733585100E-016, 1.000000000000000000 ) ) ;
#205 = DATE_AND_TIME ( #175, #217 ) ;
#206 = DIRECTION ( 'NONE',  ( -0.0000000000000000000, -1.836909530733566100E-016, 1.000000000000000000 ) ) ;
#207 = LINE ( 'NONE', #123, #193 ) ;
#208 = DIRECTION ( 'NONE',  ( -1.000000000000000000, 0.0000000000000000000, 0.0000000000000000000 ) ) ;
#209 = FACE_OUTER_BOUND ( 'NONE', #137, .T. ) ;
#210 = CARTESIAN_POINT ( 'NONE',  ( 0.0000000000000000000, 0.0000000000000000000, 1.671023789719627800 ) ) ;
#211 = AXIS2_PLACEMENT_3D ( 'NONE', #311, #72, #3 ) ;
#212 = DIRECTION ( 'NONE',  ( -0.0000000000000000000, -1.836909530733566100E-016, 1.000000000000000000 ) ) ;
#213 = CALENDAR_DATE ( 2018, 1, 6 ) ;
#214 = COORDINATED_UNIVERSAL_TIME_OFFSET ( 5, 0, .BEHIND. ) ;
#215 = MANIFOLD_SOLID_BREP ( '22003-001-1-solid1', #307 ) ;
#216 = APPROVAL_STATUS ( 'not_yet_approved' ) ;
#217 = LOCAL_TIME ( 14, 12, 45.00000000000000000, #214 ) ;
#218 = CC_DESIGN_SECURITY_CLASSIFICATION ( #62, ( #161 ) ) ;
#219 = EDGE_LOOP ( 'NONE', ( #171, #295, #91, #65 ) ) ;
#220 = AXIS2_PLACEMENT_3D ( 'NONE', #263, #208, #135 ) ;
#221 = DATE_TIME_ROLE ( 'creation_date' ) ;
#222 = PERSON_AND_ORGANIZATION_ROLE ( 'creator' ) ;
#223 = CIRCLE ( 'NONE', #194, 0.4922209950606569200 ) ;
#224 = DIRECTION ( 'NONE',  ( -0.0000000000000000000, -1.836909530733566100E-016, 1.000000000000000000 ) ) ;
#225 = APPROVAL_STATUS ( 'not_yet_approved' ) ;
#226 = CARTESIAN_POINT ( 'NONE',  ( 0.0000000000000000000, 0.0000000000000000000, 0.0000000000000000000 ) ) ;
#227 = APPROVAL_PERSON_ORGANIZATION ( #203, #172, #40 ) ;
#228 = PERSON_AND_ORGANIZATION ( #57, #24 ) ;
#229 = CARTESIAN_POINT ( 'NONE',  ( 6.123233995736767300E-017, 0.5000000000000001100, 0.1106426421663787000 ) ) ;
#230 = DIRECTION ( 'NONE',  ( 0.0000000000000000000, -1.000000000000000000, -1.878145495644180800E-016 ) ) ;
#231 = VECTOR ( 'NONE', #206, 39.37007874015748100 ) ;
#232 = LINE ( 'NONE', #105, #272 ) ;
#233 = CARTESIAN_POINT ( 'NONE',  ( 0.0000000000000000000, 6.168953106465964300E-016, -0.08211193057257906700 ) ) ;
#234 = COORDINATED_UNIVERSAL_TIME_OFFSET ( 5, 0, .BEHIND. ) ;
#235 = CIRCLE ( 'NONE', #75, 0.4922209950606569200 ) ;
#236 = ORIENTED_EDGE ( 'NONE', *, *, #308, .F. ) ;
#237 = ORIENTED_EDGE ( 'NONE', *, *, #293, .F. ) ;
#238 = CC_DESIGN_APPROVAL ( #11, ( #62 ) ) ;
#239 = DIRECTION ( 'NONE',  ( -0.0000000000000000000, -1.836909530733566100E-016, 1.000000000000000000 ) ) ;
#240 = CARTESIAN_POINT ( 'NONE',  ( 0.0000000000000000000, -0.5000000000000001100, 0.1106426421663785400 ) ) ;
#241 = LENGTH_MEASURE_WITH_UNIT ( LENGTH_MEASURE( 0.02539999999999999900 ), #269 );
#242 =( CONVERSION_BASED_UNIT ( 'INCH', #241 ) LENGTH_UNIT ( ) NAMED_UNIT ( #83 ) );
#243 = LINE ( 'NONE', #115, #149 ) ;
#244 = AXIS2_PLACEMENT_3D ( 'NONE', #182, #300, #162 ) ;
#245 = ORIENTED_EDGE ( 'NONE', *, *, #279, .F. ) ;
#246 = AXIS2_PLACEMENT_3D ( 'NONE', #8, #204, #52 ) ;
#247 = CIRCLE ( 'NONE', #143, 1.631535433070865800 ) ;
#248 = FACE_OUTER_BOUND ( 'NONE', #110, .T. ) ;
#249 = DIRECTION ( 'NONE',  ( 0.0000000000000000000, 0.0000000000000000000, -1.000000000000000000 ) ) ;
#250 = ORIENTED_EDGE ( 'NONE', *, *, #54, .F. ) ;
#251 = DIRECTION ( 'NONE',  ( 0.0000000000000000000, 1.000000000000000000, 1.707404996040164000E-016 ) ) ;
#252 = UNCERTAINTY_MEASURE_WITH_UNIT (LENGTH_MEASURE( 1.000000000000000100E-005 ), #242, 'distance_accuracy_value', 'NONE');
#253 = DIRECTION ( 'NONE',  ( -1.224646799147353500E-016, -1.000000000000000000, 0.0000000000000000000 ) ) ;
#254 = VERTEX_POINT ( 'NONE', #229 ) ;
#255 = AXIS2_PLACEMENT_3D ( 'NONE', #290, #144, #12 ) ;
#256 = DIRECTION ( 'NONE',  ( 0.0000000000000000000, -1.000000000000000000, -1.734388631502562400E-016 ) ) ;
#257 = ADVANCED_FACE ( 'NONE', ( #306 ), #202, .T. ) ;
#258 = PERSON_AND_ORGANIZATION_ROLE ( 'design_supplier' ) ;
#259 = ORIENTED_EDGE ( 'NONE', *, *, #292, .F. ) ;
#260 = CONICAL_SURFACE ( 'NONE', #244, 0.5000000000000001100, 0.7853981633974452800 ) ;
#261 = PRODUCT_RELATED_PRODUCT_CATEGORY ( 'detail', '', ( #146 ) ) ;
#262 = ORIENTED_EDGE ( 'NONE', *, *, #276, .T. ) ;
#263 = CARTESIAN_POINT ( 'NONE',  ( 0.0000000000000000000, 0.0000000000000000000, 1.671023789719627800 ) ) ;
#264 = AXIS2_PLACEMENT_3D ( 'NONE', #10, #283, #249 ) ;
#265 = DIRECTION ( 'NONE',  ( 0.0000000000000000000, 1.836909530733566100E-016, -1.000000000000000000 ) ) ;
#266 = ADVANCED_FACE ( 'NONE', ( #277 ), #136, .T. ) ;
#267 = EDGE_CURVE ( 'NONE', #320, #314, #223, .T. ) ;
#268 = DIRECTION ( 'NONE',  ( -0.0000000000000000000, -1.836909530733585100E-016, 1.000000000000000000 ) ) ;
#269 =( LENGTH_UNIT ( ) NAMED_UNIT ( * ) SI_UNIT ( $, .METRE. ) );
#270 = LINE ( 'NONE', #167, #231 ) ;
#271 = DIRECTION ( 'NONE',  ( 0.0000000000000000000, -1.000000000000000000, -1.707404996040164000E-016 ) ) ;
#272 = VECTOR ( 'NONE', #89, 39.37007874015748100 ) ;
#273 = CIRCLE ( 'NONE', #87, 0.5000000000000000000 ) ;
#274 = LOCAL_TIME ( 14, 12, 45.00000000000000000, #303 ) ;
#275 = EDGE_CURVE ( 'NONE', #296, #20, #23, .T. ) ;
#276 = EDGE_CURVE ( 'NONE', #64, #20, #247, .T. ) ;
#277 = FACE_OUTER_BOUND ( 'NONE', #131, .T. ) ;
#278 = FACE_OUTER_BOUND ( 'NONE', #4, .T. ) ;
#279 = EDGE_CURVE ( 'NONE', #88, #254, #270, .T. ) ;
#280 = COORDINATED_UNIVERSAL_TIME_OFFSET ( 5, 0, .BEHIND. ) ;
#281 = CARTESIAN_POINT ( 'NONE',  ( 0.0000000000000000000, -1.307039852198475500E-017, 0.1106426421663786200 ) ) ;
#282 = EDGE_CURVE ( 'NONE', #296, #254, #207, .T. ) ;
#283 = DIRECTION ( 'NONE',  ( 1.000000000000000000, 0.0000000000000000000, 0.0000000000000000000 ) ) ;
#284 = SECURITY_CLASSIFICATION_LEVEL ( 'unclassified' ) ;
#285 = DATE_AND_TIME ( #60, #274 ) ;
#286 = ADVANCED_FACE ( 'NONE', ( #209 ), #139, .T. ) ;
#287 = EDGE_CURVE ( 'NONE', #328, #320, #108, .T. ) ;
#288 = FACE_OUTER_BOUND ( 'NONE', #25, .T. ) ;
#289 = ORIENTED_EDGE ( 'NONE', *, *, #287, .T. ) ;
#290 = CARTESIAN_POINT ( 'NONE',  ( 0.0000000000000000000, 0.0000000000000000000, 3.276220640113328900 ) ) ;
#291 = EDGE_CURVE ( 'NONE', #2, #26, #232, .T. ) ;
#292 = EDGE_CURVE ( 'NONE', #254, #26, #159, .T. ) ;
#293 = EDGE_CURVE ( 'NONE', #20, #26, #323, .T. ) ;
#294 = EDGE_CURVE ( 'NONE', #320, #2, #185, .T. ) ;
#295 = ORIENTED_EDGE ( 'NONE', *, *, #267, .F. ) ;
#296 = VERTEX_POINT ( 'NONE', #327 ) ;
#297 = CONICAL_SURFACE ( 'NONE', #156, 0.5000000000000000000, 0.7114743566266169500 ) ;
#298 = EDGE_CURVE ( 'NONE', #26, #254, #142, .T. ) ;
#299 = APPROVAL_ROLE ( '' ) ;
#300 = DIRECTION ( 'NONE',  ( 0.0000000000000000000, 1.836909530733566100E-016, -1.000000000000000000 ) ) ;
#301 = DIRECTION ( 'NONE',  ( -0.0000000000000000000, -1.836909530733585100E-016, 1.000000000000000000 ) ) ;
#302 = EDGE_CURVE ( 'NONE', #328, #314, #128, .T. ) ;
#303 = COORDINATED_UNIVERSAL_TIME_OFFSET ( 5, 0, .BEHIND. ) ;
#304 = FACE_OUTER_BOUND ( 'NONE', #71, .T. ) ;
#305 = PERSON_AND_ORGANIZATION_ROLE ( 'classification_officer' ) ;
#306 = FACE_OUTER_BOUND ( 'NONE', #315, .T. ) ;
#307 = CLOSED_SHELL ( 'NONE', ( #197, #188, #266, #286, #74, #164, #7, #257, #5, #73 ) ) ;
#308 = EDGE_CURVE ( 'NONE', #314, #320, #235, .T. ) ;
#309 = EDGE_CURVE ( 'NONE', #2, #88, #33, .T. ) ;
#310 = EDGE_CURVE ( 'NONE', #314, #88, #243, .T. ) ;
#311 = CARTESIAN_POINT ( 'NONE',  ( 0.0000000000000000000, 0.0000000000000000000, 1.671023789719627800 ) ) ;
#312 = CONICAL_SURFACE ( 'NONE', #246, 0.5000000000000000000, 0.7114743566266169500 ) ;
#313 = ORIENTED_EDGE ( 'NONE', *, *, #282, .T. ) ;
#314 = VERTEX_POINT ( 'NONE', #120 ) ;
#315 = EDGE_LOOP ( 'NONE', ( #245, #321, #166, #259 ) ) ;
#316 = CARTESIAN_POINT ( 'NONE',  ( 0.0000000000000000000, 0.0000000000000000000, 3.276220640113328900 ) ) ;
#317 = APPROVAL_STATUS ( 'not_yet_approved' ) ;
#318 = DIRECTION ( 'NONE',  ( -0.0000000000000000000, -1.836909530733566100E-016, 1.000000000000000000 ) ) ;
#319 = ORIENTED_EDGE ( 'NONE', *, *, #325, .T. ) ;
#320 = VERTEX_POINT ( 'NONE', #107 ) ;
#321 = ORIENTED_EDGE ( 'NONE', *, *, #201, .T. ) ;
#322 = CARTESIAN_POINT ( 'NONE',  ( 0.0000000000000000000, -1.307039852198475500E-017, 0.1106426421663786200 ) ) ;
#323 = LINE ( 'NONE', #117, #48 ) ;
#324 =( NAMED_UNIT ( * ) SI_UNIT ( $, .STERADIAN. ) SOLID_ANGLE_UNIT ( ) );
#325 = EDGE_CURVE ( 'NONE', #20, #296, #121, .T. ) ;
#326 = ORIENTED_EDGE ( 'NONE', *, *, #309, .T. ) ;
#327 = CARTESIAN_POINT ( 'NONE',  ( 0.0000000000000000000, 0.4944322300693965700, 0.1162104120969813800 ) ) ;
#328 = VERTEX_POINT ( 'NONE', #113 ) ;
#329 = APPROVAL_ROLE ( '' ) ;
#330 = DIRECTION ( 'NONE',  ( -0.0000000000000000000, -1.836909530733566100E-016, 1.000000000000000000 ) ) ;
ENDSEC;
END-ISO-10303-21;
