ISO-10303-21;
HEADER;
FILE_DESCRIPTION (( 'STEP AP203' ),
    '1' );
FILE_NAME ('Web Model 68741.STEP',
    '2017-02-01T13:32:54',
    ( '' ),
    ( '' ),
    'SwSTEP 2.0',
    'SolidWorks 2016',
    '' );
FILE_SCHEMA (( 'CONFIG_CONTROL_DESIGN' ));
ENDSEC;

DATA;
#1 = APPROVAL_DATE_TIME ( #41, #156 ) ;
#2 = CARTESIAN_POINT ( 'NONE',  ( 5.000000000000000000, 0.0000000000000000000, 0.0000000000000000000 ) ) ;
#3 = DIRECTION ( 'NONE',  ( 0.0000000000000000000, 0.0000000000000000000, -1.000000000000000000 ) ) ;
#4 = DIRECTION ( 'NONE',  ( 1.000000000000000000, 0.0000000000000000000, 0.0000000000000000000 ) ) ;
#5 = SECURITY_CLASSIFICATION ( '', '', #166 ) ;
#6 = AXIS2_PLACEMENT_3D ( 'NONE', #59, #68, #70 ) ;
#7 = VERTEX_POINT ( 'NONE', #136 ) ;
#8 = PERSON_AND_ORGANIZATION ( #167, #37 ) ;
#9 = APPROVAL_PERSON_ORGANIZATION ( #99, #168, #143 ) ;
#10 = AXIS2_PLACEMENT_3D ( 'NONE', #145, #158, #98 ) ;
#11 = CARTESIAN_POINT ( 'NONE',  ( 5.000000000000000000, 0.0000000000000000000, 0.0000000000000000000 ) ) ;
#12 = VERTEX_POINT ( 'NONE', #147 ) ;
#13 = FACE_OUTER_BOUND ( 'NONE', #30, .T. ) ;
#14 = VECTOR ( 'NONE', #140, 1000.000000000000000 ) ;
#15 = AXIS2_PLACEMENT_3D ( 'NONE', #53, #4, #3 ) ;
#16 =( LENGTH_UNIT ( ) NAMED_UNIT ( * ) SI_UNIT ( .MILLI., .METRE. ) );
#17 = APPLICATION_CONTEXT ( 'configuration controlled 3d designs of mechanical parts and assemblies' ) ;
#18 = CIRCLE ( 'NONE', #6, 37.50000000000000700 ) ;
#19 = APPROVAL_STATUS ( 'not_yet_approved' ) ;
#20 = CALENDAR_DATE ( 2017, 1, 2 ) ;
#21 = CYLINDRICAL_SURFACE ( 'NONE', #49, 37.50000000000000700 ) ;
#22 = PERSON_AND_ORGANIZATION_ROLE ( 'classification_officer' ) ;
#23 = PRODUCT_DEFINITION_SHAPE ( 'NONE', 'NONE',  #152 ) ;
#24 = CC_DESIGN_PERSON_AND_ORGANIZATION_ASSIGNMENT ( #122, #36, ( #152 ) ) ;
#25 = ORIENTED_EDGE ( 'NONE', *, *, #55, .T. ) ;
#26 = CC_DESIGN_PERSON_AND_ORGANIZATION_ASSIGNMENT ( #8, #22, ( #5 ) ) ;
#27 = DIRECTION ( 'NONE',  ( -1.000000000000000000, -0.0000000000000000000, -0.0000000000000000000 ) ) ;
#28 = AXIS2_PLACEMENT_3D ( 'NONE', #2, #150, #86 ) ;
#29 = PLANE ( 'NONE',  #34 ) ;
#30 = EDGE_LOOP ( 'NONE', ( #175, #32 ) ) ;
#31 = CALENDAR_DATE ( 2017, 1, 2 ) ;
#32 = ORIENTED_EDGE ( 'NONE', *, *, #62, .F. ) ;
#33 = ADVANCED_FACE ( 'NONE', ( #13 ), #29, .F. ) ;
#34 = AXIS2_PLACEMENT_3D ( 'NONE', #81, #80, #44 ) ;
#35 = PRODUCT_RELATED_PRODUCT_CATEGORY ( 'detail', '', ( #113 ) ) ;
#36 = PERSON_AND_ORGANIZATION_ROLE ( 'creator' ) ;
#37 = ORGANIZATION ( 'UNSPECIFIED', 'UNSPECIFIED', '' ) ;
#38 = AXIS2_PLACEMENT_3D ( 'NONE', #173, #121, #60 ) ;
#39 = CLOSED_SHELL ( 'NONE', ( #111, #96, #148, #33 ) ) ;
#40 = DATE_TIME_ROLE ( 'classification_date' ) ;
#41 = DATE_AND_TIME ( #124, #137 ) ;
#42 = CARTESIAN_POINT ( 'NONE',  ( 5.000000000000000000, 0.0000000000000000000, 37.50000000000000700 ) ) ;
#43 = CYLINDRICAL_SURFACE ( 'NONE', #38, 37.50000000000000700 ) ;
#44 = DIRECTION ( 'NONE',  ( 0.0000000000000000000, 0.0000000000000000000, -1.000000000000000000 ) ) ;
#45 = APPROVAL_PERSON_ORGANIZATION ( #108, #156, #56 ) ;
#46 = LOCAL_TIME ( 8, 32, 54.00000000000000000, #78 ) ;
#47 = UNCERTAINTY_MEASURE_WITH_UNIT (LENGTH_MEASURE( 1.000000000000000100E-005 ), #16, 'distance_accuracy_value', 'NONE');
#48 = CIRCLE ( 'NONE', #28, 37.50000000000000700 ) ;
#49 = AXIS2_PLACEMENT_3D ( 'NONE', #104, #69, #159 ) ;
#50 = PRODUCT_DEFINITION_FORMATION_WITH_SPECIFIED_SOURCE ( 'ANY', '', #113, .NOT_KNOWN. ) ;
#51 = DIRECTION ( 'NONE',  ( 0.0000000000000000000, 0.0000000000000000000, -1.000000000000000000 ) ) ;
#52 = DIRECTION ( 'NONE',  ( 1.000000000000000000, 0.0000000000000000000, 0.0000000000000000000 ) ) ;
#53 = CARTESIAN_POINT ( 'NONE',  ( 0.0000000000000000000, 0.0000000000000000000, 0.0000000000000000000 ) ) ;
#54 = APPROVAL_ROLE ( '' ) ;
#55 = EDGE_CURVE ( 'NONE', #88, #12, #92, .T. ) ;
#56 = APPROVAL_ROLE ( '' ) ;
#57 = PERSON_AND_ORGANIZATION ( #167, #37 ) ;
#58 = LINE ( 'NONE', #105, #133 ) ;
#59 = CARTESIAN_POINT ( 'NONE',  ( 0.0000000000000000000, 0.0000000000000000000, 0.0000000000000000000 ) ) ;
#60 = DIRECTION ( 'NONE',  ( 0.0000000000000000000, 0.0000000000000000000, 1.000000000000000000 ) ) ;
#61 = FACE_OUTER_BOUND ( 'NONE', #125, .T. ) ;
#62 = EDGE_CURVE ( 'NONE', #7, #144, #18, .T. ) ;
#63 =( NAMED_UNIT ( * ) PLANE_ANGLE_UNIT ( ) SI_UNIT ( $, .RADIAN. ) );
#64 =( NAMED_UNIT ( * ) SI_UNIT ( $, .STERADIAN. ) SOLID_ANGLE_UNIT ( ) );
#65 = APPROVAL_DATE_TIME ( #91, #168 ) ;
#66 = ADVANCED_BREP_SHAPE_REPRESENTATION ( 'Web Model 68741', ( #138, #10 ), #107 ) ;
#67 = EDGE_CURVE ( 'NONE', #88, #144, #58, .T. ) ;
#68 = DIRECTION ( 'NONE',  ( 1.000000000000000000, 0.0000000000000000000, 0.0000000000000000000 ) ) ;
#69 = DIRECTION ( 'NONE',  ( -1.000000000000000000, -0.0000000000000000000, -0.0000000000000000000 ) ) ;
#70 = DIRECTION ( 'NONE',  ( 0.0000000000000000000, 0.0000000000000000000, -1.000000000000000000 ) ) ;
#71 = APPROVAL_PERSON_ORGANIZATION ( #102, #85, #54 ) ;
#72 = ORIENTED_EDGE ( 'NONE', *, *, #67, .T. ) ;
#73 = AXIS2_PLACEMENT_3D ( 'NONE', #97, #52, #51 ) ;
#74 = ORIENTED_EDGE ( 'NONE', *, *, #126, .T. ) ;
#75 = LOCAL_TIME ( 8, 32, 54.00000000000000000, #82 ) ;
#76 = APPLICATION_PROTOCOL_DEFINITION ( 'international standard', 'config_control_design', 1994, #141 ) ;
#77 = PERSON_AND_ORGANIZATION_ROLE ( 'design_supplier' ) ;
#78 = COORDINATED_UNIVERSAL_TIME_OFFSET ( 5, 0, .BEHIND. ) ;
#79 = DIRECTION ( 'NONE',  ( 1.000000000000000000, 0.0000000000000000000, 0.0000000000000000000 ) ) ;
#80 = DIRECTION ( 'NONE',  ( 1.000000000000000000, 0.0000000000000000000, 0.0000000000000000000 ) ) ;
#81 = CARTESIAN_POINT ( 'NONE',  ( 0.0000000000000000000, 0.0000000000000000000, 0.0000000000000000000 ) ) ;
#82 = COORDINATED_UNIVERSAL_TIME_OFFSET ( 5, 0, .BEHIND. ) ;
#83 = LINE ( 'NONE', #128, #14 ) ;
#84 = LOCAL_TIME ( 8, 32, 54.00000000000000000, #118 ) ;
#85 = APPROVAL ( #129, 'UNSPECIFIED' ) ;
#86 = DIRECTION ( 'NONE',  ( 0.0000000000000000000, 0.0000000000000000000, -1.000000000000000000 ) ) ;
#87 = APPROVAL_DATE_TIME ( #169, #85 ) ;
#88 = VERTEX_POINT ( 'NONE', #42 ) ;
#89 = DIRECTION ( 'NONE',  ( 0.0000000000000000000, 0.0000000000000000000, -1.000000000000000000 ) ) ;
#90 = PLANE ( 'NONE',  #73 ) ;
#91 = DATE_AND_TIME ( #31, #84 ) ;
#92 = CIRCLE ( 'NONE', #172, 37.50000000000000700 ) ;
#93 = CC_DESIGN_APPROVAL ( #168, ( #152 ) ) ;
#94 = ORIENTED_EDGE ( 'NONE', *, *, #62, .T. ) ;
#95 = CARTESIAN_POINT ( 'NONE',  ( 0.0000000000000000000, 0.0000000000000000000, 37.50000000000000700 ) ) ;
#96 = ADVANCED_FACE ( 'NONE', ( #151 ), #43, .T. ) ;
#97 = CARTESIAN_POINT ( 'NONE',  ( 5.000000000000000000, 0.0000000000000000000, 0.0000000000000000000 ) ) ;
#98 = DIRECTION ( 'NONE',  ( 1.000000000000000000, 0.0000000000000000000, 0.0000000000000000000 ) ) ;
#99 = PERSON_AND_ORGANIZATION ( #167, #37 ) ;
#100 = DATE_TIME_ROLE ( 'creation_date' ) ;
#101 = CC_DESIGN_PERSON_AND_ORGANIZATION_ASSIGNMENT ( #57, #153, ( #50 ) ) ;
#102 = PERSON_AND_ORGANIZATION ( #167, #37 ) ;
#103 = ORIENTED_EDGE ( 'NONE', *, *, #131, .F. ) ;
#104 = CARTESIAN_POINT ( 'NONE',  ( 5.000000000000000000, 0.0000000000000000000, 0.0000000000000000000 ) ) ;
#105 = CARTESIAN_POINT ( 'NONE',  ( 5.000000000000000000, 0.0000000000000000000, 37.50000000000000700 ) ) ;
#106 = EDGE_LOOP ( 'NONE', ( #109, #149, #72, #74 ) ) ;
#107 =( GEOMETRIC_REPRESENTATION_CONTEXT ( 3 ) GLOBAL_UNCERTAINTY_ASSIGNED_CONTEXT ( ( #47 ) ) GLOBAL_UNIT_ASSIGNED_CONTEXT ( ( #16, #63, #64 ) ) REPRESENTATION_CONTEXT ( 'NONE', 'WORKASPACE' ) );
#108 = PERSON_AND_ORGANIZATION ( #167, #37 ) ;
#109 = ORIENTED_EDGE ( 'NONE', *, *, #155, .F. ) ;
#110 = CIRCLE ( 'NONE', #15, 37.50000000000000700 ) ;
#111 = ADVANCED_FACE ( 'NONE', ( #61 ), #21, .T. ) ;
#112 = MECHANICAL_CONTEXT ( 'NONE', #141, 'mechanical' ) ;
#113 = PRODUCT ( 'Web Model 68741', 'Web Model 68741', '', ( #112 ) ) ;
#114 = CC_DESIGN_DATE_AND_TIME_ASSIGNMENT ( #142, #100, ( #152 ) ) ;
#115 = DATE_AND_TIME ( #119, #134 ) ;
#116 = CC_DESIGN_DATE_AND_TIME_ASSIGNMENT ( #115, #40, ( #5 ) ) ;
#117 = PERSON_AND_ORGANIZATION ( #167, #37 ) ;
#118 = COORDINATED_UNIVERSAL_TIME_OFFSET ( 5, 0, .BEHIND. ) ;
#119 = CALENDAR_DATE ( 2017, 1, 2 ) ;
#120 = CC_DESIGN_APPROVAL ( #156, ( #5 ) ) ;
#121 = DIRECTION ( 'NONE',  ( -1.000000000000000000, -0.0000000000000000000, -0.0000000000000000000 ) ) ;
#122 = PERSON_AND_ORGANIZATION ( #167, #37 ) ;
#123 = CC_DESIGN_PERSON_AND_ORGANIZATION_ASSIGNMENT ( #117, #77, ( #50 ) ) ;
#124 = CALENDAR_DATE ( 2017, 1, 2 ) ;
#125 = EDGE_LOOP ( 'NONE', ( #103, #161, #94, #135 ) ) ;
#126 = EDGE_CURVE ( 'NONE', #144, #7, #110, .T. ) ;
#127 = SHAPE_DEFINITION_REPRESENTATION ( #23, #66 ) ;
#128 = CARTESIAN_POINT ( 'NONE',  ( 5.000000000000000000, 4.592425496802575200E-015, -37.50000000000000700 ) ) ;
#129 = APPROVAL_STATUS ( 'not_yet_approved' ) ;
#130 = EDGE_LOOP ( 'NONE', ( #25, #146 ) ) ;
#131 = EDGE_CURVE ( 'NONE', #12, #88, #48, .T. ) ;
#132 = APPROVAL_STATUS ( 'not_yet_approved' ) ;
#133 = VECTOR ( 'NONE', #27, 1000.000000000000000 ) ;
#134 = LOCAL_TIME ( 8, 32, 54.00000000000000000, #165 ) ;
#135 = ORIENTED_EDGE ( 'NONE', *, *, #67, .F. ) ;
#136 = CARTESIAN_POINT ( 'NONE',  ( 0.0000000000000000000, 4.592425496802575200E-015, -37.50000000000000700 ) ) ;
#137 = LOCAL_TIME ( 8, 32, 54.00000000000000000, #170 ) ;
#138 = MANIFOLD_SOLID_BREP ( 'Extrude1', #39 ) ;
#139 = CC_DESIGN_SECURITY_CLASSIFICATION ( #5, ( #50 ) ) ;
#140 = DIRECTION ( 'NONE',  ( -1.000000000000000000, -0.0000000000000000000, -0.0000000000000000000 ) ) ;
#141 = APPLICATION_CONTEXT ( 'configuration controlled 3d designs of mechanical parts and assemblies' ) ;
#142 = DATE_AND_TIME ( #20, #75 ) ;
#143 = APPROVAL_ROLE ( '' ) ;
#144 = VERTEX_POINT ( 'NONE', #95 ) ;
#145 = CARTESIAN_POINT ( 'NONE',  ( 0.0000000000000000000, 0.0000000000000000000, 0.0000000000000000000 ) ) ;
#146 = ORIENTED_EDGE ( 'NONE', *, *, #131, .T. ) ;
#147 = CARTESIAN_POINT ( 'NONE',  ( 5.000000000000000000, 4.592425496802575200E-015, -37.50000000000000700 ) ) ;
#148 = ADVANCED_FACE ( 'NONE', ( #160 ), #90, .T. ) ;
#149 = ORIENTED_EDGE ( 'NONE', *, *, #55, .F. ) ;
#150 = DIRECTION ( 'NONE',  ( 1.000000000000000000, 0.0000000000000000000, 0.0000000000000000000 ) ) ;
#151 = FACE_OUTER_BOUND ( 'NONE', #106, .T. ) ;
#152 = PRODUCT_DEFINITION ( 'UNKNOWN', '', #50, #174 ) ;
#153 = PERSON_AND_ORGANIZATION_ROLE ( 'creator' ) ;
#154 = CALENDAR_DATE ( 2017, 1, 2 ) ;
#155 = EDGE_CURVE ( 'NONE', #12, #7, #83, .T. ) ;
#156 = APPROVAL ( #132, 'UNSPECIFIED' ) ;
#157 = CC_DESIGN_PERSON_AND_ORGANIZATION_ASSIGNMENT ( #163, #162, ( #113 ) ) ;
#158 = DIRECTION ( 'NONE',  ( 0.0000000000000000000, 0.0000000000000000000, 1.000000000000000000 ) ) ;
#159 = DIRECTION ( 'NONE',  ( 0.0000000000000000000, 0.0000000000000000000, 1.000000000000000000 ) ) ;
#160 = FACE_OUTER_BOUND ( 'NONE', #130, .T. ) ;
#161 = ORIENTED_EDGE ( 'NONE', *, *, #155, .T. ) ;
#162 = PERSON_AND_ORGANIZATION_ROLE ( 'design_owner' ) ;
#163 = PERSON_AND_ORGANIZATION ( #167, #37 ) ;
#164 = APPLICATION_PROTOCOL_DEFINITION ( 'international standard', 'config_control_design', 1994, #17 ) ;
#165 = COORDINATED_UNIVERSAL_TIME_OFFSET ( 5, 0, .BEHIND. ) ;
#166 = SECURITY_CLASSIFICATION_LEVEL ( 'unclassified' ) ;
#167 = PERSON ( 'UNSPECIFIED', 'UNSPECIFIED', 'UNSPECIFIED', ('UNSPECIFIED'), ('UNSPECIFIED'), ('UNSPECIFIED') ) ;
#168 = APPROVAL ( #19, 'UNSPECIFIED' ) ;
#169 = DATE_AND_TIME ( #154, #46 ) ;
#170 = COORDINATED_UNIVERSAL_TIME_OFFSET ( 5, 0, .BEHIND. ) ;
#171 = CC_DESIGN_APPROVAL ( #85, ( #50 ) ) ;
#172 = AXIS2_PLACEMENT_3D ( 'NONE', #11, #79, #89 ) ;
#173 = CARTESIAN_POINT ( 'NONE',  ( 5.000000000000000000, 0.0000000000000000000, 0.0000000000000000000 ) ) ;
#174 = DESIGN_CONTEXT ( 'detailed design', #17, 'design' ) ;
#175 = ORIENTED_EDGE ( 'NONE', *, *, #126, .F. ) ;
ENDSEC;
END-ISO-10303-21;
