ISO-10303-21;
HEADER;
FILE_DESCRIPTION (( 'STEP AP203' ),
    '1' );
FILE_NAME ('Web Model 48921_48921.step',
    '2020-10-21T18:35:14',
    ( '' ),
    ( '' ),
    'SwSTEP 2.0',
    'SolidWorks 2018',
    '' );
FILE_SCHEMA (( 'CONFIG_CONTROL_DESIGN' ));
ENDSEC;

DATA;
#1 = CIRCLE ( 'NONE', #9, 20.00000000000000000 ) ;
#2 = CC_DESIGN_APPROVAL ( #108, ( #168 ) ) ;
#3 = PERSON ( 'UNSPECIFIED', 'UNSPECIFIED', 'UNSPECIFIED', ('UNSPECIFIED'), ('UNSPECIFIED'), ('UNSPECIFIED') ) ;
#4 = DIRECTION ( 'NONE',  ( -0.0000000000000000000, -0.0000000000000000000, -1.000000000000000000 ) ) ;
#5 = CALENDAR_DATE ( 2020, 21, 10 ) ;
#6 = APPLICATION_PROTOCOL_DEFINITION ( 'international standard', 'config_control_design', 1994, #33 ) ;
#7 = CIRCLE ( 'NONE', #128, 20.00000000000000000 ) ;
#8 = ORIENTED_EDGE ( 'NONE', *, *, #159, .T. ) ;
#9 = AXIS2_PLACEMENT_3D ( 'NONE', #157, #44, #19 ) ;
#10 = DIRECTION ( 'NONE',  ( -0.0000000000000000000, -0.0000000000000000000, -1.000000000000000000 ) ) ;
#11 = DIRECTION ( 'NONE',  ( 1.000000000000000000, 0.0000000000000000000, 0.0000000000000000000 ) ) ;
#12 = FACE_OUTER_BOUND ( 'NONE', #123, .T. ) ;
#13 = LOCAL_TIME ( 14, 35, 14.00000000000000000, #156 ) ;
#14 =( GEOMETRIC_REPRESENTATION_CONTEXT ( 3 ) GLOBAL_UNCERTAINTY_ASSIGNED_CONTEXT ( ( #104 ) ) GLOBAL_UNIT_ASSIGNED_CONTEXT ( ( #20, #69, #167 ) ) REPRESENTATION_CONTEXT ( 'NONE', 'WORKASPACE' ) );
#15 = DIRECTION ( 'NONE',  ( 0.0000000000000000000, 0.0000000000000000000, 1.000000000000000000 ) ) ;
#16 = PERSON_AND_ORGANIZATION_ROLE ( 'creator' ) ;
#17 = DIRECTION ( 'NONE',  ( 1.000000000000000000, 0.0000000000000000000, 0.0000000000000000000 ) ) ;
#18 = DATE_AND_TIME ( #98, #81 ) ;
#19 = DIRECTION ( 'NONE',  ( 1.000000000000000000, 0.0000000000000000000, 0.0000000000000000000 ) ) ;
#20 =( LENGTH_UNIT ( ) NAMED_UNIT ( * ) SI_UNIT ( .MILLI., .METRE. ) );
#21 = MANIFOLD_SOLID_BREP ( 'Boss-Extrude1', #87 ) ;
#22 = DATE_TIME_ROLE ( 'classification_date' ) ;
#23 = APPROVAL_DATE_TIME ( #35, #108 ) ;
#24 = ORIENTED_EDGE ( 'NONE', *, *, #131, .F. ) ;
#25 = CC_DESIGN_APPROVAL ( #114, ( #39 ) ) ;
#26 = CALENDAR_DATE ( 2020, 21, 10 ) ;
#27 = DIRECTION ( 'NONE',  ( -1.000000000000000000, 0.0000000000000000000, 0.0000000000000000000 ) ) ;
#28 = VECTOR ( 'NONE', #82, 1000.000000000000000 ) ;
#29 = ORIENTED_EDGE ( 'NONE', *, *, #171, .T. ) ;
#30 = PERSON_AND_ORGANIZATION_ROLE ( 'creator' ) ;
#31 = CARTESIAN_POINT ( 'NONE',  ( 20.00000000000000000, 2.449293598294706513E-15, 2.000000000000000000 ) ) ;
#32 = AXIS2_PLACEMENT_3D ( 'NONE', #68, #79, #11 ) ;
#33 = APPLICATION_CONTEXT ( 'configuration controlled 3d designs of mechanical parts and assemblies' ) ;
#34 = MECHANICAL_CONTEXT ( 'NONE', #45, 'mechanical' ) ;
#35 = DATE_AND_TIME ( #46, #129 ) ;
#36 = APPROVAL_ROLE ( '' ) ;
#37 = AXIS2_PLACEMENT_3D ( 'NONE', #57, #124, #77 ) ;
#38 = COORDINATED_UNIVERSAL_TIME_OFFSET ( 5, 0, .BEHIND. ) ;
#39 = PRODUCT_DEFINITION ( 'UNKNOWN', '', #158, #134 ) ;
#40 = CARTESIAN_POINT ( 'NONE',  ( 0.0000000000000000000, 0.0000000000000000000, 2.000000000000000000 ) ) ;
#41 = ORGANIZATION ( 'UNSPECIFIED', 'UNSPECIFIED', '' ) ;
#42 = CARTESIAN_POINT ( 'NONE',  ( 20.00000000000000000, 2.449293598294706513E-15, 0.0000000000000000000 ) ) ;
#43 = AXIS2_PLACEMENT_3D ( 'NONE', #40, #151, #102 ) ;
#44 = DIRECTION ( 'NONE',  ( 0.0000000000000000000, 0.0000000000000000000, 1.000000000000000000 ) ) ;
#45 = APPLICATION_CONTEXT ( 'configuration controlled 3d designs of mechanical parts and assemblies' ) ;
#46 = CALENDAR_DATE ( 2020, 21, 10 ) ;
#47 = ORIENTED_EDGE ( 'NONE', *, *, #146, .F. ) ;
#48 = PERSON_AND_ORGANIZATION ( #3, #41 ) ;
#49 = APPROVAL ( #106, 'UNSPECIFIED' ) ;
#50 = VERTEX_POINT ( 'NONE', #42 ) ;
#51 = CARTESIAN_POINT ( 'NONE',  ( -20.00000000000000000, 0.0000000000000000000, 2.000000000000000000 ) ) ;
#52 = CIRCLE ( 'NONE', #154, 20.00000000000000000 ) ;
#53 = VERTEX_POINT ( 'NONE', #51 ) ;
#54 = CC_DESIGN_PERSON_AND_ORGANIZATION_ASSIGNMENT ( #119, #16, ( #39 ) ) ;
#55 = APPROVAL_DATE_TIME ( #72, #49 ) ;
#56 = CARTESIAN_POINT ( 'NONE',  ( 20.00000000000000000, 2.449293598294706513E-15, 2.000000000000000000 ) ) ;
#57 = CARTESIAN_POINT ( 'NONE',  ( 0.0000000000000000000, 0.0000000000000000000, 2.000000000000000000 ) ) ;
#58 = DATE_AND_TIME ( #5, #84 ) ;
#59 = COORDINATED_UNIVERSAL_TIME_OFFSET ( 5, 0, .BEHIND. ) ;
#60 = AXIS2_PLACEMENT_3D ( 'NONE', #148, #15, #17 ) ;
#61 = DATE_AND_TIME ( #26, #139 ) ;
#62 = ADVANCED_FACE ( 'NONE', ( #12 ), #150, .T. ) ;
#63 = CYLINDRICAL_SURFACE ( 'NONE', #37, 20.00000000000000000 ) ;
#64 = CARTESIAN_POINT ( 'NONE',  ( -20.00000000000000000, 0.0000000000000000000, 0.0000000000000000000 ) ) ;
#65 = CC_DESIGN_DATE_AND_TIME_ASSIGNMENT ( #58, #22, ( #168 ) ) ;
#66 = CIRCLE ( 'NONE', #60, 20.00000000000000000 ) ;
#67 = ADVANCED_BREP_SHAPE_REPRESENTATION ( 'Web Model 48921_48921', ( #21, #32 ), #14 ) ;
#68 = CARTESIAN_POINT ( 'NONE',  ( 0.0000000000000000000, 0.0000000000000000000, 0.0000000000000000000 ) ) ;
#69 =( NAMED_UNIT ( * ) PLANE_ANGLE_UNIT ( ) SI_UNIT ( $, .RADIAN. ) );
#70 = PRODUCT_RELATED_PRODUCT_CATEGORY ( 'detail', '', ( #164 ) ) ;
#71 = ORIENTED_EDGE ( 'NONE', *, *, #141, .T. ) ;
#72 = DATE_AND_TIME ( #111, #13 ) ;
#73 = ADVANCED_FACE ( 'NONE', ( #147 ), #89, .F. ) ;
#74 = FACE_OUTER_BOUND ( 'NONE', #76, .T. ) ;
#75 = PERSON_AND_ORGANIZATION ( #3, #41 ) ;
#76 = EDGE_LOOP ( 'NONE', ( #115, #107, #8, #173 ) ) ;
#77 = DIRECTION ( 'NONE',  ( -1.000000000000000000, 0.0000000000000000000, 0.0000000000000000000 ) ) ;
#78 = DATE_TIME_ROLE ( 'creation_date' ) ;
#79 = DIRECTION ( 'NONE',  ( 0.0000000000000000000, 0.0000000000000000000, 1.000000000000000000 ) ) ;
#80 = DIRECTION ( 'NONE',  ( 0.0000000000000000000, 0.0000000000000000000, 1.000000000000000000 ) ) ;
#81 = LOCAL_TIME ( 14, 35, 14.00000000000000000, #38 ) ;
#82 = DIRECTION ( 'NONE',  ( -0.0000000000000000000, -0.0000000000000000000, -1.000000000000000000 ) ) ;
#83 = PERSON_AND_ORGANIZATION_ROLE ( 'classification_officer' ) ;
#84 = LOCAL_TIME ( 14, 35, 14.00000000000000000, #130 ) ;
#85 = EDGE_LOOP ( 'NONE', ( #24, #162 ) ) ;
#86 = APPROVAL_PERSON_ORGANIZATION ( #122, #114, #92 ) ;
#87 = CLOSED_SHELL ( 'NONE', ( #88, #132, #62, #73 ) ) ;
#88 = ADVANCED_FACE ( 'NONE', ( #74 ), #100, .T. ) ;
#89 = PLANE ( 'NONE',  #174 ) ;
#90 = PERSON_AND_ORGANIZATION ( #3, #41 ) ;
#91 = CC_DESIGN_PERSON_AND_ORGANIZATION_ASSIGNMENT ( #90, #93, ( #158 ) ) ;
#92 = APPROVAL_ROLE ( '' ) ;
#93 = PERSON_AND_ORGANIZATION_ROLE ( 'design_supplier' ) ;
#94 = APPLICATION_PROTOCOL_DEFINITION ( 'international standard', 'config_control_design', 1994, #45 ) ;
#95 = AXIS2_PLACEMENT_3D ( 'NONE', #103, #4, #27 ) ;
#96 = ORIENTED_EDGE ( 'NONE', *, *, #131, .T. ) ;
#97 = CC_DESIGN_PERSON_AND_ORGANIZATION_ASSIGNMENT ( #143, #110, ( #164 ) ) ;
#98 = CALENDAR_DATE ( 2020, 21, 10 ) ;
#99 = VECTOR ( 'NONE', #10, 1000.000000000000000 ) ;
#100 = CYLINDRICAL_SURFACE ( 'NONE', #95, 20.00000000000000000 ) ;
#101 = ORIENTED_EDGE ( 'NONE', *, *, #125, .T. ) ;
#102 = DIRECTION ( 'NONE',  ( 1.000000000000000000, 0.0000000000000000000, -0.0000000000000000000 ) ) ;
#103 = CARTESIAN_POINT ( 'NONE',  ( 0.0000000000000000000, 0.0000000000000000000, 2.000000000000000000 ) ) ;
#104 = UNCERTAINTY_MEASURE_WITH_UNIT (LENGTH_MEASURE( 1.000000000000000082E-05 ), #20, 'distance_accuracy_value', 'NONE');
#105 = DIRECTION ( 'NONE',  ( 0.0000000000000000000, 0.0000000000000000000, 1.000000000000000000 ) ) ;
#106 = APPROVAL_STATUS ( 'not_yet_approved' ) ;
#107 = ORIENTED_EDGE ( 'NONE', *, *, #146, .T. ) ;
#108 = APPROVAL ( #113, 'UNSPECIFIED' ) ;
#109 = SECURITY_CLASSIFICATION_LEVEL ( 'unclassified' ) ;
#110 = PERSON_AND_ORGANIZATION_ROLE ( 'design_owner' ) ;
#111 = CALENDAR_DATE ( 2020, 21, 10 ) ;
#112 = CC_DESIGN_DATE_AND_TIME_ASSIGNMENT ( #61, #78, ( #39 ) ) ;
#113 = APPROVAL_STATUS ( 'not_yet_approved' ) ;
#114 = APPROVAL ( #155, 'UNSPECIFIED' ) ;
#115 = ORIENTED_EDGE ( 'NONE', *, *, #125, .F. ) ;
#116 = PERSON_AND_ORGANIZATION ( #3, #41 ) ;
#117 = VERTEX_POINT ( 'NONE', #64 ) ;
#118 = CC_DESIGN_PERSON_AND_ORGANIZATION_ASSIGNMENT ( #116, #30, ( #158 ) ) ;
#119 = PERSON_AND_ORGANIZATION ( #3, #41 ) ;
#120 = CARTESIAN_POINT ( 'NONE',  ( 0.0000000000000000000, 0.0000000000000000000, 0.0000000000000000000 ) ) ;
#121 = CC_DESIGN_APPROVAL ( #49, ( #158 ) ) ;
#122 = PERSON_AND_ORGANIZATION ( #3, #41 ) ;
#123 = EDGE_LOOP ( 'NONE', ( #71, #101 ) ) ;
#124 = DIRECTION ( 'NONE',  ( -0.0000000000000000000, -0.0000000000000000000, -1.000000000000000000 ) ) ;
#125 = EDGE_CURVE ( 'NONE', #145, #53, #66, .T. ) ;
#126 = APPROVAL_ROLE ( '' ) ;
#127 = DIRECTION ( 'NONE',  ( 1.000000000000000000, 0.0000000000000000000, 0.0000000000000000000 ) ) ;
#128 = AXIS2_PLACEMENT_3D ( 'NONE', #170, #80, #140 ) ;
#129 = LOCAL_TIME ( 14, 35, 14.00000000000000000, #165 ) ;
#130 = COORDINATED_UNIVERSAL_TIME_OFFSET ( 5, 0, .BEHIND. ) ;
#131 = EDGE_CURVE ( 'NONE', #117, #50, #7, .T. ) ;
#132 = ADVANCED_FACE ( 'NONE', ( #166 ), #63, .T. ) ;
#133 = APPROVAL_PERSON_ORGANIZATION ( #48, #49, #126 ) ;
#134 = DESIGN_CONTEXT ( 'detailed design', #33, 'design' ) ;
#135 = CC_DESIGN_SECURITY_CLASSIFICATION ( #168, ( #158 ) ) ;
#136 = DIRECTION ( 'NONE',  ( 1.000000000000000000, 0.0000000000000000000, -0.0000000000000000000 ) ) ;
#137 = CARTESIAN_POINT ( 'NONE',  ( 0.0000000000000000000, 0.0000000000000000000, 2.000000000000000000 ) ) ;
#138 = PRODUCT_DEFINITION_SHAPE ( 'NONE', 'NONE',  #39 ) ;
#139 = LOCAL_TIME ( 14, 35, 14.00000000000000000, #59 ) ;
#140 = DIRECTION ( 'NONE',  ( 1.000000000000000000, 0.0000000000000000000, 0.0000000000000000000 ) ) ;
#141 = EDGE_CURVE ( 'NONE', #53, #145, #52, .T. ) ;
#142 = CARTESIAN_POINT ( 'NONE',  ( -20.00000000000000000, 0.0000000000000000000, 2.000000000000000000 ) ) ;
#143 = PERSON_AND_ORGANIZATION ( #3, #41 ) ;
#144 = CC_DESIGN_PERSON_AND_ORGANIZATION_ASSIGNMENT ( #169, #83, ( #168 ) ) ;
#145 = VERTEX_POINT ( 'NONE', #56 ) ;
#146 = EDGE_CURVE ( 'NONE', #145, #50, #160, .T. ) ;
#147 = FACE_OUTER_BOUND ( 'NONE', #85, .T. ) ;
#148 = CARTESIAN_POINT ( 'NONE',  ( 0.0000000000000000000, 0.0000000000000000000, 2.000000000000000000 ) ) ;
#149 = APPROVAL_PERSON_ORGANIZATION ( #75, #108, #36 ) ;
#150 = PLANE ( 'NONE',  #43 ) ;
#151 = DIRECTION ( 'NONE',  ( 0.0000000000000000000, 0.0000000000000000000, 1.000000000000000000 ) ) ;
#152 = ORIENTED_EDGE ( 'NONE', *, *, #141, .F. ) ;
#153 = EDGE_LOOP ( 'NONE', ( #47, #152, #29, #96 ) ) ;
#154 = AXIS2_PLACEMENT_3D ( 'NONE', #137, #172, #127 ) ;
#155 = APPROVAL_STATUS ( 'not_yet_approved' ) ;
#156 = COORDINATED_UNIVERSAL_TIME_OFFSET ( 5, 0, .BEHIND. ) ;
#157 = CARTESIAN_POINT ( 'NONE',  ( 0.0000000000000000000, 0.0000000000000000000, 0.0000000000000000000 ) ) ;
#158 = PRODUCT_DEFINITION_FORMATION_WITH_SPECIFIED_SOURCE ( 'ANY', '', #164, .NOT_KNOWN. ) ;
#159 = EDGE_CURVE ( 'NONE', #50, #117, #1, .T. ) ;
#160 = LINE ( 'NONE', #31, #28 ) ;
#161 = SHAPE_DEFINITION_REPRESENTATION ( #138, #67 ) ;
#162 = ORIENTED_EDGE ( 'NONE', *, *, #159, .F. ) ;
#163 = APPROVAL_DATE_TIME ( #18, #114 ) ;
#164 = PRODUCT ( 'Web Model 48921_48921', 'Web Model 48921_48921', '', ( #34 ) ) ;
#165 = COORDINATED_UNIVERSAL_TIME_OFFSET ( 5, 0, .BEHIND. ) ;
#166 = FACE_OUTER_BOUND ( 'NONE', #153, .T. ) ;
#167 =( NAMED_UNIT ( * ) SI_UNIT ( $, .STERADIAN. ) SOLID_ANGLE_UNIT ( ) );
#168 = SECURITY_CLASSIFICATION ( '', '', #109 ) ;
#169 = PERSON_AND_ORGANIZATION ( #3, #41 ) ;
#170 = CARTESIAN_POINT ( 'NONE',  ( 0.0000000000000000000, 0.0000000000000000000, 0.0000000000000000000 ) ) ;
#171 = EDGE_CURVE ( 'NONE', #53, #117, #175, .T. ) ;
#172 = DIRECTION ( 'NONE',  ( 0.0000000000000000000, 0.0000000000000000000, 1.000000000000000000 ) ) ;
#173 = ORIENTED_EDGE ( 'NONE', *, *, #171, .F. ) ;
#174 = AXIS2_PLACEMENT_3D ( 'NONE', #120, #105, #136 ) ;
#175 = LINE ( 'NONE', #142, #99 ) ;
ENDSEC;
END-ISO-10303-21;
