ISO-10303-21;
HEADER;
FILE_DESCRIPTION (( 'STEP AP203' ),
    '1' );
FILE_NAME ('Web Model 36991_13316.step',
    '2020-11-03T22:13:12',
    ( '' ),
    ( '' ),
    'SwSTEP 2.0',
    'SolidWorks 2018',
    '' );
FILE_SCHEMA (( 'CONFIG_CONTROL_DESIGN' ));
ENDSEC;

DATA;
#1 = CYLINDRICAL_SURFACE ( 'NONE', #96, 12.50000000000000000 ) ;
#2 = PERSON_AND_ORGANIZATION ( #23, #90 ) ;
#3 = DIRECTION ( 'NONE',  ( 0.0000000000000000000, 0.0000000000000000000, 1.000000000000000000 ) ) ;
#4 = EDGE_CURVE ( 'NONE', #16, #145, #36, .T. ) ;
#5 = DIRECTION ( 'NONE',  ( 1.000000000000000000, 0.0000000000000000000, -0.0000000000000000000 ) ) ;
#6 = UNCERTAINTY_MEASURE_WITH_UNIT (LENGTH_MEASURE( 1.000000000000000082E-05 ), #146, 'distance_accuracy_value', 'NONE');
#7 = DIRECTION ( 'NONE',  ( 1.000000000000000000, 0.0000000000000000000, 0.0000000000000000000 ) ) ;
#8 = ORIENTED_EDGE ( 'NONE', *, *, #4, .F. ) ;
#9 = DIRECTION ( 'NONE',  ( 1.000000000000000000, 0.0000000000000000000, 0.0000000000000000000 ) ) ;
#10 = APPROVAL_DATE_TIME ( #110, #115 ) ;
#11 = ORIENTED_EDGE ( 'NONE', *, *, #147, .T. ) ;
#12 = APPLICATION_CONTEXT ( 'configuration controlled 3d designs of mechanical parts and assemblies' ) ;
#13 = DATE_AND_TIME ( #53, #26 ) ;
#14 = PERSON_AND_ORGANIZATION_ROLE ( 'creator' ) ;
#15 =( GEOMETRIC_REPRESENTATION_CONTEXT ( 3 ) GLOBAL_UNCERTAINTY_ASSIGNED_CONTEXT ( ( #6 ) ) GLOBAL_UNIT_ASSIGNED_CONTEXT ( ( #146, #34, #143 ) ) REPRESENTATION_CONTEXT ( 'NONE', 'WORKASPACE' ) );
#16 = VERTEX_POINT ( 'NONE', #82 ) ;
#17 = COORDINATED_UNIVERSAL_TIME_OFFSET ( 5, 0, .BEHIND. ) ;
#18 = PLANE ( 'NONE',  #118 ) ;
#19 = APPROVAL_PERSON_ORGANIZATION ( #105, #63, #138 ) ;
#20 = CARTESIAN_POINT ( 'NONE',  ( 12.50000000000000000, 1.530808498934191521E-15, -0.5000000000000000000 ) ) ;
#21 = CARTESIAN_POINT ( 'NONE',  ( 0.0000000000000000000, 0.0000000000000000000, -0.5000000000000000000 ) ) ;
#22 = ORIENTED_EDGE ( 'NONE', *, *, #66, .T. ) ;
#23 = PERSON ( 'UNSPECIFIED', 'UNSPECIFIED', 'UNSPECIFIED', ('UNSPECIFIED'), ('UNSPECIFIED'), ('UNSPECIFIED') ) ;
#24 = CALENDAR_DATE ( 2020, 3, 11 ) ;
#25 = AXIS2_PLACEMENT_3D ( 'NONE', #99, #154, #86 ) ;
#26 = LOCAL_TIME ( 17, 13, 12.00000000000000000, #93 ) ;
#27 = DATE_AND_TIME ( #24, #75 ) ;
#28 = CC_DESIGN_PERSON_AND_ORGANIZATION_ASSIGNMENT ( #55, #152, ( #50 ) ) ;
#29 = SECURITY_CLASSIFICATION_LEVEL ( 'unclassified' ) ;
#30 = ORIENTED_EDGE ( 'NONE', *, *, #155, .F. ) ;
#31 = CC_DESIGN_APPROVAL ( #41, ( #73 ) ) ;
#32 = DIRECTION ( 'NONE',  ( -0.0000000000000000000, -0.0000000000000000000, -1.000000000000000000 ) ) ;
#33 = CARTESIAN_POINT ( 'NONE',  ( -12.50000000000000000, 0.0000000000000000000, -0.5000000000000000000 ) ) ;
#34 =( NAMED_UNIT ( * ) PLANE_ANGLE_UNIT ( ) SI_UNIT ( $, .RADIAN. ) );
#35 = APPLICATION_CONTEXT ( 'configuration controlled 3d designs of mechanical parts and assemblies' ) ;
#36 = CIRCLE ( 'NONE', #126, 12.50000000000000000 ) ;
#37 = APPROVAL_ROLE ( '' ) ;
#38 = SHAPE_DEFINITION_REPRESENTATION ( #161, #51 ) ;
#39 = CC_DESIGN_DATE_AND_TIME_ASSIGNMENT ( #13, #98, ( #73 ) ) ;
#40 = EDGE_LOOP ( 'NONE', ( #8, #164, #22, #113 ) ) ;
#41 = APPROVAL ( #166, 'UNSPECIFIED' ) ;
#42 = LOCAL_TIME ( 17, 13, 12.00000000000000000, #61 ) ;
#43 = PERSON_AND_ORGANIZATION ( #23, #90 ) ;
#44 = APPROVAL_ROLE ( '' ) ;
#45 = CARTESIAN_POINT ( 'NONE',  ( 0.0000000000000000000, 0.0000000000000000000, 0.5000000000000000000 ) ) ;
#46 = APPROVAL_STATUS ( 'not_yet_approved' ) ;
#47 = DIRECTION ( 'NONE',  ( 1.000000000000000000, 0.0000000000000000000, -0.0000000000000000000 ) ) ;
#48 = CARTESIAN_POINT ( 'NONE',  ( 12.50000000000000000, 1.530808498934191521E-15, 0.5000000000000000000 ) ) ;
#49 = PERSON_AND_ORGANIZATION ( #23, #90 ) ;
#50 = PRODUCT_DEFINITION_FORMATION_WITH_SPECIFIED_SOURCE ( 'ANY', '', #172, .NOT_KNOWN. ) ;
#51 = ADVANCED_BREP_SHAPE_REPRESENTATION ( 'Web Model 36991_13316', ( #149, #102 ), #15 ) ;
#52 = CC_DESIGN_PERSON_AND_ORGANIZATION_ASSIGNMENT ( #43, #111, ( #50 ) ) ;
#53 = CALENDAR_DATE ( 2020, 3, 11 ) ;
#54 = EDGE_LOOP ( 'NONE', ( #151, #148 ) ) ;
#55 = PERSON_AND_ORGANIZATION ( #23, #90 ) ;
#56 = CARTESIAN_POINT ( 'NONE',  ( -12.50000000000000000, 0.0000000000000000000, 0.5000000000000000000 ) ) ;
#57 = CARTESIAN_POINT ( 'NONE',  ( 0.0000000000000000000, 0.0000000000000000000, 0.5000000000000000000 ) ) ;
#58 = EDGE_LOOP ( 'NONE', ( #112, #156 ) ) ;
#59 = SECURITY_CLASSIFICATION ( '', '', #29 ) ;
#60 = CARTESIAN_POINT ( 'NONE',  ( -12.50000000000000000, 0.0000000000000000000, 0.5000000000000000000 ) ) ;
#61 = COORDINATED_UNIVERSAL_TIME_OFFSET ( 5, 0, .BEHIND. ) ;
#62 = FACE_OUTER_BOUND ( 'NONE', #91, .T. ) ;
#63 = APPROVAL ( #46, 'UNSPECIFIED' ) ;
#64 = APPLICATION_PROTOCOL_DEFINITION ( 'international standard', 'config_control_design', 1994, #35 ) ;
#65 = ORIENTED_EDGE ( 'NONE', *, *, #131, .T. ) ;
#66 = EDGE_CURVE ( 'NONE', #116, #77, #158, .T. ) ;
#67 = CYLINDRICAL_SURFACE ( 'NONE', #76, 12.50000000000000000 ) ;
#68 = DATE_TIME_ROLE ( 'classification_date' ) ;
#69 = APPROVAL_STATUS ( 'not_yet_approved' ) ;
#70 = APPROVAL_DATE_TIME ( #27, #41 ) ;
#71 = CARTESIAN_POINT ( 'NONE',  ( 0.0000000000000000000, 0.0000000000000000000, 0.5000000000000000000 ) ) ;
#72 = CARTESIAN_POINT ( 'NONE',  ( 0.0000000000000000000, 0.0000000000000000000, -0.5000000000000000000 ) ) ;
#73 = PRODUCT_DEFINITION ( 'UNKNOWN', '', #50, #121 ) ;
#74 = PLANE ( 'NONE',  #120 ) ;
#75 = LOCAL_TIME ( 17, 13, 12.00000000000000000, #17 ) ;
#76 = AXIS2_PLACEMENT_3D ( 'NONE', #71, #84, #140 ) ;
#77 = VERTEX_POINT ( 'NONE', #33 ) ;
#78 = LINE ( 'NONE', #60, #163 ) ;
#79 = CC_DESIGN_APPROVAL ( #115, ( #59 ) ) ;
#80 = CLOSED_SHELL ( 'NONE', ( #173, #141, #129, #159 ) ) ;
#81 = CALENDAR_DATE ( 2020, 3, 11 ) ;
#82 = CARTESIAN_POINT ( 'NONE',  ( 12.50000000000000000, 1.530808498934191521E-15, 0.5000000000000000000 ) ) ;
#83 = CC_DESIGN_PERSON_AND_ORGANIZATION_ASSIGNMENT ( #2, #153, ( #59 ) ) ;
#84 = DIRECTION ( 'NONE',  ( -0.0000000000000000000, -0.0000000000000000000, -1.000000000000000000 ) ) ;
#85 = ORIENTED_EDGE ( 'NONE', *, *, #108, .F. ) ;
#86 = DIRECTION ( 'NONE',  ( 1.000000000000000000, 0.0000000000000000000, 0.0000000000000000000 ) ) ;
#87 = DIRECTION ( 'NONE',  ( 0.0000000000000000000, 0.0000000000000000000, 1.000000000000000000 ) ) ;
#88 = VECTOR ( 'NONE', #125, 1000.000000000000000 ) ;
#89 = CC_DESIGN_SECURITY_CLASSIFICATION ( #59, ( #50 ) ) ;
#90 = ORGANIZATION ( 'UNSPECIFIED', 'UNSPECIFIED', '' ) ;
#91 = EDGE_LOOP ( 'NONE', ( #85, #30, #11, #65 ) ) ;
#92 = DATE_AND_TIME ( #123, #142 ) ;
#93 = COORDINATED_UNIVERSAL_TIME_OFFSET ( 5, 0, .BEHIND. ) ;
#94 = APPROVAL_PERSON_ORGANIZATION ( #135, #115, #44 ) ;
#95 = LINE ( 'NONE', #48, #88 ) ;
#96 = AXIS2_PLACEMENT_3D ( 'NONE', #45, #101, #136 ) ;
#97 = AXIS2_PLACEMENT_3D ( 'NONE', #114, #117, #124 ) ;
#98 = DATE_TIME_ROLE ( 'creation_date' ) ;
#99 = CARTESIAN_POINT ( 'NONE',  ( 0.0000000000000000000, 0.0000000000000000000, 0.5000000000000000000 ) ) ;
#100 = APPROVAL_DATE_TIME ( #92, #63 ) ;
#101 = DIRECTION ( 'NONE',  ( -0.0000000000000000000, -0.0000000000000000000, -1.000000000000000000 ) ) ;
#102 = AXIS2_PLACEMENT_3D ( 'NONE', #128, #87, #144 ) ;
#103 = DIRECTION ( 'NONE',  ( 0.0000000000000000000, 0.0000000000000000000, 1.000000000000000000 ) ) ;
#104 = FACE_OUTER_BOUND ( 'NONE', #58, .T. ) ;
#105 = PERSON_AND_ORGANIZATION ( #23, #90 ) ;
#106 = CC_DESIGN_DATE_AND_TIME_ASSIGNMENT ( #175, #68, ( #59 ) ) ;
#107 = LOCAL_TIME ( 17, 13, 12.00000000000000000, #168 ) ;
#108 = EDGE_CURVE ( 'NONE', #16, #116, #95, .T. ) ;
#109 = PERSON_AND_ORGANIZATION ( #23, #90 ) ;
#110 = DATE_AND_TIME ( #81, #42 ) ;
#111 = PERSON_AND_ORGANIZATION_ROLE ( 'design_supplier' ) ;
#112 = ORIENTED_EDGE ( 'NONE', *, *, #131, .F. ) ;
#113 = ORIENTED_EDGE ( 'NONE', *, *, #147, .F. ) ;
#114 = CARTESIAN_POINT ( 'NONE',  ( 0.0000000000000000000, 0.0000000000000000000, -0.5000000000000000000 ) ) ;
#115 = APPROVAL ( #69, 'UNSPECIFIED' ) ;
#116 = VERTEX_POINT ( 'NONE', #20 ) ;
#117 = DIRECTION ( 'NONE',  ( 0.0000000000000000000, 0.0000000000000000000, 1.000000000000000000 ) ) ;
#118 = AXIS2_PLACEMENT_3D ( 'NONE', #57, #3, #47 ) ;
#119 = COORDINATED_UNIVERSAL_TIME_OFFSET ( 5, 0, .BEHIND. ) ;
#120 = AXIS2_PLACEMENT_3D ( 'NONE', #72, #171, #5 ) ;
#121 = DESIGN_CONTEXT ( 'detailed design', #12, 'design' ) ;
#122 = CC_DESIGN_PERSON_AND_ORGANIZATION_ASSIGNMENT ( #109, #127, ( #172 ) ) ;
#123 = CALENDAR_DATE ( 2020, 3, 11 ) ;
#124 = DIRECTION ( 'NONE',  ( 1.000000000000000000, 0.0000000000000000000, 0.0000000000000000000 ) ) ;
#125 = DIRECTION ( 'NONE',  ( -0.0000000000000000000, -0.0000000000000000000, -1.000000000000000000 ) ) ;
#126 = AXIS2_PLACEMENT_3D ( 'NONE', #157, #103, #9 ) ;
#127 = PERSON_AND_ORGANIZATION_ROLE ( 'design_owner' ) ;
#128 = CARTESIAN_POINT ( 'NONE',  ( 0.0000000000000000000, 0.0000000000000000000, 0.0000000000000000000 ) ) ;
#129 = ADVANCED_FACE ( 'NONE', ( #167 ), #18, .T. ) ;
#130 = CALENDAR_DATE ( 2020, 3, 11 ) ;
#131 = EDGE_CURVE ( 'NONE', #77, #116, #150, .T. ) ;
#132 = APPROVAL_PERSON_ORGANIZATION ( #137, #41, #37 ) ;
#133 = CIRCLE ( 'NONE', #25, 12.50000000000000000 ) ;
#134 = CC_DESIGN_APPROVAL ( #63, ( #50 ) ) ;
#135 = PERSON_AND_ORGANIZATION ( #23, #90 ) ;
#136 = DIRECTION ( 'NONE',  ( -1.000000000000000000, 0.0000000000000000000, 0.0000000000000000000 ) ) ;
#137 = PERSON_AND_ORGANIZATION ( #23, #90 ) ;
#138 = APPROVAL_ROLE ( '' ) ;
#139 = PRODUCT_RELATED_PRODUCT_CATEGORY ( 'detail', '', ( #172 ) ) ;
#140 = DIRECTION ( 'NONE',  ( -1.000000000000000000, 0.0000000000000000000, 0.0000000000000000000 ) ) ;
#141 = ADVANCED_FACE ( 'NONE', ( #62 ), #1, .T. ) ;
#142 = LOCAL_TIME ( 17, 13, 12.00000000000000000, #119 ) ;
#143 =( NAMED_UNIT ( * ) SI_UNIT ( $, .STERADIAN. ) SOLID_ANGLE_UNIT ( ) );
#144 = DIRECTION ( 'NONE',  ( 1.000000000000000000, 0.0000000000000000000, 0.0000000000000000000 ) ) ;
#145 = VERTEX_POINT ( 'NONE', #56 ) ;
#146 =( LENGTH_UNIT ( ) NAMED_UNIT ( * ) SI_UNIT ( .MILLI., .METRE. ) );
#147 = EDGE_CURVE ( 'NONE', #145, #77, #78, .T. ) ;
#148 = ORIENTED_EDGE ( 'NONE', *, *, #4, .T. ) ;
#149 = MANIFOLD_SOLID_BREP ( 'Boss-Extrude1', #80 ) ;
#150 = CIRCLE ( 'NONE', #97, 12.50000000000000000 ) ;
#151 = ORIENTED_EDGE ( 'NONE', *, *, #155, .T. ) ;
#152 = PERSON_AND_ORGANIZATION_ROLE ( 'creator' ) ;
#153 = PERSON_AND_ORGANIZATION_ROLE ( 'classification_officer' ) ;
#154 = DIRECTION ( 'NONE',  ( 0.0000000000000000000, 0.0000000000000000000, 1.000000000000000000 ) ) ;
#155 = EDGE_CURVE ( 'NONE', #145, #16, #133, .T. ) ;
#156 = ORIENTED_EDGE ( 'NONE', *, *, #66, .F. ) ;
#157 = CARTESIAN_POINT ( 'NONE',  ( 0.0000000000000000000, 0.0000000000000000000, 0.5000000000000000000 ) ) ;
#158 = CIRCLE ( 'NONE', #165, 12.50000000000000000 ) ;
#159 = ADVANCED_FACE ( 'NONE', ( #104 ), #74, .F. ) ;
#160 = MECHANICAL_CONTEXT ( 'NONE', #35, 'mechanical' ) ;
#161 = PRODUCT_DEFINITION_SHAPE ( 'NONE', 'NONE',  #73 ) ;
#162 = APPLICATION_PROTOCOL_DEFINITION ( 'international standard', 'config_control_design', 1994, #12 ) ;
#163 = VECTOR ( 'NONE', #32, 1000.000000000000000 ) ;
#164 = ORIENTED_EDGE ( 'NONE', *, *, #108, .T. ) ;
#165 = AXIS2_PLACEMENT_3D ( 'NONE', #21, #169, #7 ) ;
#166 = APPROVAL_STATUS ( 'not_yet_approved' ) ;
#167 = FACE_OUTER_BOUND ( 'NONE', #54, .T. ) ;
#168 = COORDINATED_UNIVERSAL_TIME_OFFSET ( 5, 0, .BEHIND. ) ;
#169 = DIRECTION ( 'NONE',  ( 0.0000000000000000000, 0.0000000000000000000, 1.000000000000000000 ) ) ;
#170 = CC_DESIGN_PERSON_AND_ORGANIZATION_ASSIGNMENT ( #49, #14, ( #73 ) ) ;
#171 = DIRECTION ( 'NONE',  ( 0.0000000000000000000, 0.0000000000000000000, 1.000000000000000000 ) ) ;
#172 = PRODUCT ( 'Web Model 36991_13316', 'Web Model 36991_13316', '', ( #160 ) ) ;
#173 = ADVANCED_FACE ( 'NONE', ( #174 ), #67, .T. ) ;
#174 = FACE_OUTER_BOUND ( 'NONE', #40, .T. ) ;
#175 = DATE_AND_TIME ( #130, #107 ) ;
ENDSEC;
END-ISO-10303-21;
