ISO-10303-21;
HEADER;
FILE_DESCRIPTION (( 'STEP AP203' ),
    '1' );
FILE_NAME ('Ø25mm High Energy Laser Line Polarizer_86713.step',
    '2018-07-19T13:01:04',
    ( '' ),
    ( '' ),
    'SwSTEP 2.0',
    'SolidWorks 2016',
    '' );
FILE_SCHEMA (( 'CONFIG_CONTROL_DESIGN' ));
ENDSEC;

DATA;
#1 = CIRCLE ( 'NONE', #116, 0.4851662718503937900 ) ;
#2 = ORIENTED_EDGE ( 'NONE', *, *, #118, .T. ) ;
#3 = DIRECTION ( 'NONE',  ( -0.0000000000000000000, -0.0000000000000000000, 1.000000000000000000 ) ) ;
#4 = DIRECTION ( 'NONE',  ( 1.000000000000000000, 0.0000000000000000000, 0.0000000000000000000 ) ) ;
#5 = LOCAL_TIME ( 9, 1, 4.000000000000000000, #199 ) ;
#6 = PERSON_AND_ORGANIZATION ( #16, #65 ) ;
#7 = DIRECTION ( 'NONE',  ( -1.000000000000000000, 0.0000000000000000000, 0.0000000000000000000 ) ) ;
#8 = LINE ( 'NONE', #67, #232 ) ;
#9 = AXIS2_PLACEMENT_3D ( 'NONE', #269, #182, #78 ) ;
#10 = CONICAL_SURFACE ( 'NONE', #247, 0.4921259842519685200, 0.7853981633974531600 ) ;
#11 = EDGE_CURVE ( 'NONE', #58, #25, #180, .T. ) ;
#12 = DIRECTION ( 'NONE',  ( -1.000000000000000000, 0.0000000000000000000, 0.0000000000000000000 ) ) ;
#13 = CC_DESIGN_PERSON_AND_ORGANIZATION_ASSIGNMENT ( #167, #83, ( #202 ) ) ;
#14 = ORIENTED_EDGE ( 'NONE', *, *, #105, .T. ) ;
#15 = DIRECTION ( 'NONE',  ( -0.0000000000000000000, -0.0000000000000000000, -1.000000000000000000 ) ) ;
#16 = PERSON ( 'UNSPECIFIED', 'UNSPECIFIED', 'UNSPECIFIED', ('UNSPECIFIED'), ('UNSPECIFIED'), ('UNSPECIFIED') ) ;
#17 = ORIENTED_EDGE ( 'NONE', *, *, #11, .F. ) ;
#18 = APPROVAL_ROLE ( '' ) ;
#19 = CALENDAR_DATE ( 2018, 19, 7 ) ;
#20 = ORIENTED_EDGE ( 'NONE', *, *, #193, .F. ) ;
#21 = ADVANCED_FACE ( 'NONE', ( #130 ), #147, .T. ) ;
#22 = CC_DESIGN_DATE_AND_TIME_ASSIGNMENT ( #119, #150, ( #151 ) ) ;
#23 = APPROVAL_DATE_TIME ( #110, #233 ) ;
#24 = FACE_OUTER_BOUND ( 'NONE', #40, .T. ) ;
#25 = VERTEX_POINT ( 'NONE', #184 ) ;
#26 = MANIFOLD_SOLID_BREP ( '83977310-1-solid1', #250 ) ;
#27 = CC_DESIGN_DATE_AND_TIME_ASSIGNMENT ( #69, #137, ( #179 ) ) ;
#28 = ADVANCED_FACE ( 'NONE', ( #141 ), #145, .T. ) ;
#29 = LINE ( 'NONE', #44, #140 ) ;
#30 = PERSON_AND_ORGANIZATION ( #16, #65 ) ;
#31 = ORIENTED_EDGE ( 'NONE', *, *, #224, .T. ) ;
#32 = ORIENTED_EDGE ( 'NONE', *, *, #278, .T. ) ;
#33 = VERTEX_POINT ( 'NONE', #259 ) ;
#34 = CARTESIAN_POINT ( 'NONE',  ( 0.0000000000000000000, 0.0000000000000000000, 0.0000000000000000000 ) ) ;
#35 = FACE_OUTER_BOUND ( 'NONE', #221, .T. ) ;
#36 = ORIENTED_EDGE ( 'NONE', *, *, #177, .F. ) ;
#37 = DIRECTION ( 'NONE',  ( 0.7071067811865509000, 0.0000000000000000000, 0.7071067811865440200 ) ) ;
#38 = DIRECTION ( 'NONE',  ( -0.0000000000000000000, -0.0000000000000000000, 1.000000000000000000 ) ) ;
#39 = AXIS2_PLACEMENT_3D ( 'NONE', #55, #270, #103 ) ;
#40 = EDGE_LOOP ( 'NONE', ( #63, #31, #235, #61 ) ) ;
#41 = APPLICATION_CONTEXT ( 'configuration controlled 3d designs of mechanical parts and assemblies' ) ;
#42 = CIRCLE ( 'NONE', #99, 0.4851662718503937900 ) ;
#43 = DIRECTION ( 'NONE',  ( -0.0000000000000000000, -0.0000000000000000000, -1.000000000000000000 ) ) ;
#44 = CARTESIAN_POINT ( 'NONE',  ( -0.3744701114176313100, 1.220614474678271000, -0.2575388198975657700 ) ) ;
#45 = ORIENTED_EDGE ( 'NONE', *, *, #193, .T. ) ;
#46 =( GEOMETRIC_REPRESENTATION_CONTEXT ( 3 ) GLOBAL_UNCERTAINTY_ASSIGNED_CONTEXT ( ( #217 ) ) GLOBAL_UNIT_ASSIGNED_CONTEXT ( ( #192, #236, #148 ) ) REPRESENTATION_CONTEXT ( 'NONE', 'WORKASPACE' ) );
#47 = LINE ( 'NONE', #222, #98 ) ;
#48 = ADVANCED_FACE ( 'NONE', ( #138 ), #10, .T. ) ;
#49 = DIRECTION ( 'NONE',  ( -0.7071067811865440200, 0.0000000000000000000, -0.7071067811865510100 ) ) ;
#50 = DIRECTION ( 'NONE',  ( 0.7071067811865440200, 8.659560562354888500E-017, -0.7071067811865510100 ) ) ;
#51 = COORDINATED_UNIVERSAL_TIME_OFFSET ( 5, 0, .BEHIND. ) ;
#52 = ORIENTED_EDGE ( 'NONE', *, *, #264, .T. ) ;
#53 = CONICAL_SURFACE ( 'NONE', #187, 0.4851662718503939600, 0.7853981633974433900 ) ;
#54 = CARTESIAN_POINT ( 'NONE',  ( -1.351762367519993900, 1.220614474678271000, -0.4867995799369360100 ) ) ;
#55 = CARTESIAN_POINT ( 'NONE',  ( -0.8596363832680253800, 1.220614474678271000, -0.2575388198975657700 ) ) ;
#56 = CARTESIAN_POINT ( 'NONE',  ( -0.8596363832680253800, 1.220614474678271000, -0.2575388198975657700 ) ) ;
#57 = DIRECTION ( 'NONE',  ( 0.0000000000000000000, 0.0000000000000000000, 1.000000000000000000 ) ) ;
#58 = VERTEX_POINT ( 'NONE', #126 ) ;
#59 = CARTESIAN_POINT ( 'NONE',  ( -0.8596363832680253800, 1.220614474678271000, -0.2644985322991403300 ) ) ;
#60 = VECTOR ( 'NONE', #204, 39.37007874015748900 ) ;
#61 = ORIENTED_EDGE ( 'NONE', *, *, #71, .T. ) ;
#62 = DIRECTION ( 'NONE',  ( 0.0000000000000000000, 0.0000000000000000000, 1.000000000000000000 ) ) ;
#63 = ORIENTED_EDGE ( 'NONE', *, *, #206, .F. ) ;
#64 = PERSON_AND_ORGANIZATION_ROLE ( 'creator' ) ;
#65 = ORGANIZATION ( 'UNSPECIFIED', 'UNSPECIFIED', '' ) ;
#66 = ADVANCED_FACE ( 'NONE', ( #245 ), #123, .T. ) ;
#67 = CARTESIAN_POINT ( 'NONE',  ( -1.344802655118419300, 1.220614474678271000, -0.2575388198975657700 ) ) ;
#68 = CARTESIAN_POINT ( 'NONE',  ( -0.8596363832680253800, 1.220614474678271000, -0.2644985322991403300 ) ) ;
#69 = DATE_AND_TIME ( #19, #142 ) ;
#70 = APPROVAL_DATE_TIME ( #185, #253 ) ;
#71 = EDGE_CURVE ( 'NONE', #101, #33, #81, .T. ) ;
#72 = ORIENTED_EDGE ( 'NONE', *, *, #206, .T. ) ;
#73 = APPROVAL ( #134, 'UNSPECIFIED' ) ;
#74 = PLANE ( 'NONE',  #9 ) ;
#75 = DESIGN_CONTEXT ( 'detailed design', #277, 'design' ) ;
#76 = CALENDAR_DATE ( 2018, 19, 7 ) ;
#77 = VERTEX_POINT ( 'NONE', #169 ) ;
#78 = DIRECTION ( 'NONE',  ( 1.000000000000000000, 0.0000000000000000000, -0.0000000000000000000 ) ) ;
#79 = CARTESIAN_POINT ( 'NONE',  ( -1.351762367519993900, 1.220614474678271000, -0.2644985322991403300 ) ) ;
#80 = FACE_OUTER_BOUND ( 'NONE', #229, .T. ) ;
#81 = CIRCLE ( 'NONE', #146, 0.4921259842519685200 ) ;
#82 = DIRECTION ( 'NONE',  ( -0.0000000000000000000, -0.0000000000000000000, -1.000000000000000000 ) ) ;
#83 = PERSON_AND_ORGANIZATION_ROLE ( 'creator' ) ;
#84 = ORIENTED_EDGE ( 'NONE', *, *, #118, .F. ) ;
#85 = DIRECTION ( 'NONE',  ( 1.000000000000000000, 0.0000000000000000000, 0.0000000000000000000 ) ) ;
#86 = CARTESIAN_POINT ( 'NONE',  ( -0.8596363832680253800, 1.220614474678271000, -0.2575388198975657700 ) ) ;
#87 = EDGE_CURVE ( 'NONE', #25, #77, #29, .T. ) ;
#88 = CIRCLE ( 'NONE', #159, 0.4851662718503940700 ) ;
#89 = DIRECTION ( 'NONE',  ( 1.000000000000000000, 0.0000000000000000000, 0.0000000000000000000 ) ) ;
#90 = VERTEX_POINT ( 'NONE', #93 ) ;
#91 = CC_DESIGN_SECURITY_CLASSIFICATION ( #179, ( #202 ) ) ;
#92 = DIMENSIONAL_EXPONENTS ( 1.000000000000000000, 0.0000000000000000000, 0.0000000000000000000, 0.0000000000000000000, 0.0000000000000000000, 0.0000000000000000000, 0.0000000000000000000 ) ;
#93 = CARTESIAN_POINT ( 'NONE',  ( -1.344802655118419300, 1.220614474678271000, -0.4937592923385106800 ) ) ;
#94 = PERSON_AND_ORGANIZATION_ROLE ( 'classification_officer' ) ;
#95 = CYLINDRICAL_SURFACE ( 'NONE', #273, 0.4921259842519684100 ) ;
#96 = CARTESIAN_POINT ( 'NONE',  ( -1.351762367519993900, 1.220614474678271000, -0.4867995799369360100 ) ) ;
#97 = ORIENTED_EDGE ( 'NONE', *, *, #226, .T. ) ;
#98 = VECTOR ( 'NONE', #43, 39.37007874015748100 ) ;
#99 = AXIS2_PLACEMENT_3D ( 'NONE', #162, #15, #255 ) ;
#100 = CIRCLE ( 'NONE', #262, 0.4921259842519685200 ) ;
#101 = VERTEX_POINT ( 'NONE', #96 ) ;
#102 = AXIS2_PLACEMENT_3D ( 'NONE', #214, #216, #85 ) ;
#103 = DIRECTION ( 'NONE',  ( -1.000000000000000000, 0.0000000000000000000, 0.0000000000000000000 ) ) ;
#104 = LENGTH_MEASURE_WITH_UNIT ( LENGTH_MEASURE( 0.02539999999999999900 ), #109 );
#105 = EDGE_CURVE ( 'NONE', #257, #77, #238, .T. ) ;
#106 = EDGE_LOOP ( 'NONE', ( #128, #178, #45, #114 ) ) ;
#107 = AXIS2_PLACEMENT_3D ( 'NONE', #189, #38, #209 ) ;
#108 = CARTESIAN_POINT ( 'NONE',  ( -0.3675103990160568700, 1.220614474678271000, -0.2575388198975657700 ) ) ;
#109 =( LENGTH_UNIT ( ) NAMED_UNIT ( * ) SI_UNIT ( $, .METRE. ) );
#110 = DATE_AND_TIME ( #237, #122 ) ;
#111 = AXIS2_PLACEMENT_3D ( 'NONE', #246, #117, #7 ) ;
#112 = APPLICATION_PROTOCOL_DEFINITION ( 'international standard', 'config_control_design', 1994, #277 ) ;
#113 = ORIENTED_EDGE ( 'NONE', *, *, #160, .T. ) ;
#114 = ORIENTED_EDGE ( 'NONE', *, *, #71, .F. ) ;
#115 = DIRECTION ( 'NONE',  ( 1.000000000000000000, 0.0000000000000000000, 0.0000000000000000000 ) ) ;
#116 = AXIS2_PLACEMENT_3D ( 'NONE', #215, #173, #89 ) ;
#117 = DIRECTION ( 'NONE',  ( -0.0000000000000000000, -0.0000000000000000000, -1.000000000000000000 ) ) ;
#118 = EDGE_CURVE ( 'NONE', #58, #257, #8, .T. ) ;
#119 = DATE_AND_TIME ( #271, #124 ) ;
#120 = FACE_OUTER_BOUND ( 'NONE', #252, .T. ) ;
#121 = AXIS2_PLACEMENT_3D ( 'NONE', #34, #57, #194 ) ;
#122 = LOCAL_TIME ( 9, 1, 4.000000000000000000, #51 ) ;
#123 = CONICAL_SURFACE ( 'NONE', #102, 0.4921259842519685200, 0.7853981633974531600 ) ;
#124 = LOCAL_TIME ( 9, 1, 4.000000000000000000, #191 ) ;
#125 = CIRCLE ( 'NONE', #107, 0.4921259842519685200 ) ;
#126 = CARTESIAN_POINT ( 'NONE',  ( -1.344802655118419300, 1.220614474678271000, -0.2575388198975657700 ) ) ;
#127 = PRODUCT ( 'Ø25mm High Energy Laser Line Polarizer_86713', 'Ø25mm High Energy Laser Line Polarizer_86713', '', ( #132 ) ) ;
#128 = ORIENTED_EDGE ( 'NONE', *, *, #160, .F. ) ;
#129 = APPROVAL_STATUS ( 'not_yet_approved' ) ;
#130 = FACE_OUTER_BOUND ( 'NONE', #158, .T. ) ;
#131 = AXIS2_PLACEMENT_3D ( 'NONE', #56, #234, #190 ) ;
#132 = MECHANICAL_CONTEXT ( 'NONE', #41, 'mechanical' ) ;
#133 = EDGE_CURVE ( 'NONE', #257, #101, #47, .T. ) ;
#134 = APPROVAL_STATUS ( 'not_yet_approved' ) ;
#135 = CARTESIAN_POINT ( 'NONE',  ( -0.8596363832680253800, 1.220614474678271000, -0.4867995799369360100 ) ) ;
#136 = ADVANCED_FACE ( 'NONE', ( #80 ), #53, .T. ) ;
#137 = DATE_TIME_ROLE ( 'classification_date' ) ;
#138 = FACE_OUTER_BOUND ( 'NONE', #149, .T. ) ;
#139 = DATE_AND_TIME ( #76, #5 ) ;
#140 = VECTOR ( 'NONE', #50, 39.37007874015748100 ) ;
#141 = FACE_OUTER_BOUND ( 'NONE', #239, .T. ) ;
#142 = LOCAL_TIME ( 9, 1, 4.000000000000000000, #197 ) ;
#143 = DIRECTION ( 'NONE',  ( 1.000000000000000000, 0.0000000000000000000, 0.0000000000000000000 ) ) ;
#144 = AXIS2_PLACEMENT_3D ( 'NONE', #163, #62, #143 ) ;
#145 = PLANE ( 'NONE',  #131 ) ;
#146 = AXIS2_PLACEMENT_3D ( 'NONE', #135, #3, #4 ) ;
#147 = CONICAL_SURFACE ( 'NONE', #39, 0.4851662718503939600, 0.7853981633974433900 ) ;
#148 =( NAMED_UNIT ( * ) SI_UNIT ( $, .STERADIAN. ) SOLID_ANGLE_UNIT ( ) );
#149 = EDGE_LOOP ( 'NONE', ( #200, #113, #36, #20 ) ) ;
#150 = DATE_TIME_ROLE ( 'creation_date' ) ;
#151 = PRODUCT_DEFINITION ( 'UNKNOWN', '', #202, #75 ) ;
#152 = ADVANCED_FACE ( 'NONE', ( #120 ), #153, .T. ) ;
#153 = CYLINDRICAL_SURFACE ( 'NONE', #111, 0.4921259842519684100 ) ;
#154 = APPROVAL_ROLE ( '' ) ;
#155 = AXIS2_PLACEMENT_3D ( 'NONE', #68, #243, #115 ) ;
#156 = PRODUCT_DEFINITION_SHAPE ( 'NONE', 'NONE',  #151 ) ;
#157 = LINE ( 'NONE', #108, #249 ) ;
#158 = EDGE_LOOP ( 'NONE', ( #266, #17, #2, #186 ) ) ;
#159 = AXIS2_PLACEMENT_3D ( 'NONE', #86, #213, #165 ) ;
#160 = EDGE_CURVE ( 'NONE', #90, #101, #175, .T. ) ;
#161 = CC_DESIGN_APPROVAL ( #253, ( #179 ) ) ;
#162 = CARTESIAN_POINT ( 'NONE',  ( -0.8596363832680253800, 1.220614474678271000, -0.4937592923385106800 ) ) ;
#163 = CARTESIAN_POINT ( 'NONE',  ( -0.8596363832680253800, 1.220614474678271000, -0.2575388198975657700 ) ) ;
#164 = SHAPE_DEFINITION_REPRESENTATION ( #156, #208 ) ;
#165 = DIRECTION ( 'NONE',  ( 1.000000000000000000, 0.0000000000000000000, 0.0000000000000000000 ) ) ;
#166 = DIRECTION ( 'NONE',  ( -0.0000000000000000000, -0.0000000000000000000, 1.000000000000000000 ) ) ;
#167 = PERSON_AND_ORGANIZATION ( #16, #65 ) ;
#168 = PERSON_AND_ORGANIZATION ( #16, #65 ) ;
#169 = CARTESIAN_POINT ( 'NONE',  ( -0.3675103990160568700, 1.220614474678271000, -0.2644985322991403300 ) ) ;
#170 = CC_DESIGN_PERSON_AND_ORGANIZATION_ASSIGNMENT ( #244, #64, ( #151 ) ) ;
#171 = ADVANCED_FACE ( 'NONE', ( #35 ), #74, .F. ) ;
#172 = CARTESIAN_POINT ( 'NONE',  ( -0.8596363832680253800, 1.220614474678271000, -0.2575388198975657700 ) ) ;
#173 = DIRECTION ( 'NONE',  ( -0.0000000000000000000, -0.0000000000000000000, -1.000000000000000000 ) ) ;
#174 = PERSON_AND_ORGANIZATION ( #16, #65 ) ;
#175 = LINE ( 'NONE', #54, #60 ) ;
#176 = ORIENTED_EDGE ( 'NONE', *, *, #105, .F. ) ;
#177 = EDGE_CURVE ( 'NONE', #33, #101, #125, .T. ) ;
#178 = ORIENTED_EDGE ( 'NONE', *, *, #278, .F. ) ;
#179 = SECURITY_CLASSIFICATION ( '', '', #223 ) ;
#180 = CIRCLE ( 'NONE', #144, 0.4851662718503940700 ) ;
#181 = CALENDAR_DATE ( 2018, 19, 7 ) ;
#182 = DIRECTION ( 'NONE',  ( 0.0000000000000000000, 0.0000000000000000000, 1.000000000000000000 ) ) ;
#183 = CC_DESIGN_APPROVAL ( #73, ( #202 ) ) ;
#184 = CARTESIAN_POINT ( 'NONE',  ( -0.3744701114176313100, 1.220614474678271000, -0.2575388198975657700 ) ) ;
#185 = DATE_AND_TIME ( #181, #195 ) ;
#186 = ORIENTED_EDGE ( 'NONE', *, *, #224, .F. ) ;
#187 = AXIS2_PLACEMENT_3D ( 'NONE', #172, #265, #201 ) ;
#188 = ORIENTED_EDGE ( 'NONE', *, *, #264, .F. ) ;
#189 = CARTESIAN_POINT ( 'NONE',  ( -0.8596363832680253800, 1.220614474678271000, -0.4867995799369360100 ) ) ;
#190 = DIRECTION ( 'NONE',  ( 1.000000000000000000, 0.0000000000000000000, -0.0000000000000000000 ) ) ;
#191 = COORDINATED_UNIVERSAL_TIME_OFFSET ( 5, 0, .BEHIND. ) ;
#192 =( CONVERSION_BASED_UNIT ( 'INCH', #104 ) LENGTH_UNIT ( ) NAMED_UNIT ( #92 ) );
#193 = EDGE_CURVE ( 'NONE', #211, #33, #272, .T. ) ;
#194 = DIRECTION ( 'NONE',  ( 1.000000000000000000, 0.0000000000000000000, 0.0000000000000000000 ) ) ;
#195 = LOCAL_TIME ( 9, 1, 4.000000000000000000, #248 ) ;
#196 = APPROVAL_ROLE ( '' ) ;
#197 = COORDINATED_UNIVERSAL_TIME_OFFSET ( 5, 0, .BEHIND. ) ;
#198 = CC_DESIGN_PERSON_AND_ORGANIZATION_ASSIGNMENT ( #30, #94, ( #179 ) ) ;
#199 = COORDINATED_UNIVERSAL_TIME_OFFSET ( 5, 0, .BEHIND. ) ;
#200 = ORIENTED_EDGE ( 'NONE', *, *, #226, .F. ) ;
#201 = DIRECTION ( 'NONE',  ( -1.000000000000000000, 0.0000000000000000000, 0.0000000000000000000 ) ) ;
#202 = PRODUCT_DEFINITION_FORMATION_WITH_SPECIFIED_SOURCE ( 'ANY', '', #127, .NOT_KNOWN. ) ;
#203 = ORIENTED_EDGE ( 'NONE', *, *, #11, .T. ) ;
#204 = DIRECTION ( 'NONE',  ( -0.7071067811865509000, 8.659560562354974800E-017, 0.7071067811865440200 ) ) ;
#205 = ORIENTED_EDGE ( 'NONE', *, *, #87, .T. ) ;
#206 = EDGE_CURVE ( 'NONE', #77, #33, #157, .T. ) ;
#207 = ORIENTED_EDGE ( 'NONE', *, *, #177, .T. ) ;
#208 = ADVANCED_BREP_SHAPE_REPRESENTATION ( '+25mm High Energy Laser Line Polarizer_86713', ( #26, #121 ), #46 ) ;
#209 = DIRECTION ( 'NONE',  ( 1.000000000000000000, 0.0000000000000000000, 0.0000000000000000000 ) ) ;
#210 = VECTOR ( 'NONE', #37, 39.37007874015748900 ) ;
#211 = VERTEX_POINT ( 'NONE', #275 ) ;
#212 = CARTESIAN_POINT ( 'NONE',  ( -0.8596363832680253800, 1.220614474678271000, -0.4867995799369360100 ) ) ;
#213 = DIRECTION ( 'NONE',  ( 0.0000000000000000000, 0.0000000000000000000, 1.000000000000000000 ) ) ;
#214 = CARTESIAN_POINT ( 'NONE',  ( -0.8596363832680253800, 1.220614474678271000, -0.4867995799369360100 ) ) ;
#215 = CARTESIAN_POINT ( 'NONE',  ( -0.8596363832680253800, 1.220614474678271000, -0.4937592923385106800 ) ) ;
#216 = DIRECTION ( 'NONE',  ( -0.0000000000000000000, -0.0000000000000000000, 1.000000000000000000 ) ) ;
#217 = UNCERTAINTY_MEASURE_WITH_UNIT (LENGTH_MEASURE( 1.000000000000000100E-005 ), #192, 'distance_accuracy_value', 'NONE');
#218 = ADVANCED_FACE ( 'NONE', ( #24 ), #95, .T. ) ;
#219 = APPROVAL_STATUS ( 'not_yet_approved' ) ;
#220 = PRODUCT_RELATED_PRODUCT_CATEGORY ( 'detail', '', ( #127 ) ) ;
#221 = EDGE_LOOP ( 'NONE', ( #32, #97 ) ) ;
#222 = CARTESIAN_POINT ( 'NONE',  ( -1.351762367519993900, 1.220614474678271000, -0.2575388198975657700 ) ) ;
#223 = SECURITY_CLASSIFICATION_LEVEL ( 'unclassified' ) ;
#224 = EDGE_CURVE ( 'NONE', #77, #257, #100, .T. ) ;
#225 = PERSON_AND_ORGANIZATION ( #16, #65 ) ;
#226 = EDGE_CURVE ( 'NONE', #90, #211, #42, .T. ) ;
#227 = APPROVAL_PERSON_ORGANIZATION ( #168, #233, #18 ) ;
#228 = CC_DESIGN_APPROVAL ( #233, ( #151 ) ) ;
#229 = EDGE_LOOP ( 'NONE', ( #188, #205, #176, #84 ) ) ;
#230 = CC_DESIGN_PERSON_AND_ORGANIZATION_ASSIGNMENT ( #174, #258, ( #202 ) ) ;
#231 = DIRECTION ( 'NONE',  ( -0.0000000000000000000, -0.0000000000000000000, -1.000000000000000000 ) ) ;
#232 = VECTOR ( 'NONE', #49, 39.37007874015748100 ) ;
#233 = APPROVAL ( #129, 'UNSPECIFIED' ) ;
#234 = DIRECTION ( 'NONE',  ( 0.0000000000000000000, 0.0000000000000000000, 1.000000000000000000 ) ) ;
#235 = ORIENTED_EDGE ( 'NONE', *, *, #133, .T. ) ;
#236 =( NAMED_UNIT ( * ) PLANE_ANGLE_UNIT ( ) SI_UNIT ( $, .RADIAN. ) );
#237 = CALENDAR_DATE ( 2018, 19, 7 ) ;
#238 = CIRCLE ( 'NONE', #155, 0.4921259842519685200 ) ;
#239 = EDGE_LOOP ( 'NONE', ( #203, #52 ) ) ;
#240 = PERSON_AND_ORGANIZATION_ROLE ( 'design_owner' ) ;
#241 = CC_DESIGN_PERSON_AND_ORGANIZATION_ASSIGNMENT ( #6, #240, ( #127 ) ) ;
#242 = APPROVAL_PERSON_ORGANIZATION ( #225, #253, #154 ) ;
#243 = DIRECTION ( 'NONE',  ( 0.0000000000000000000, 0.0000000000000000000, -1.000000000000000000 ) ) ;
#244 = PERSON_AND_ORGANIZATION ( #16, #65 ) ;
#245 = FACE_OUTER_BOUND ( 'NONE', #106, .T. ) ;
#246 = CARTESIAN_POINT ( 'NONE',  ( -0.8596363832680253800, 1.220614474678271000, -0.2575388198975657700 ) ) ;
#247 = AXIS2_PLACEMENT_3D ( 'NONE', #212, #166, #261 ) ;
#248 = COORDINATED_UNIVERSAL_TIME_OFFSET ( 5, 0, .BEHIND. ) ;
#249 = VECTOR ( 'NONE', #82, 39.37007874015748100 ) ;
#250 = CLOSED_SHELL ( 'NONE', ( #136, #48, #152, #218, #28, #171, #66, #21 ) ) ;
#251 = CARTESIAN_POINT ( 'NONE',  ( -0.3675103990160568700, 1.220614474678271000, -0.4867995799369360100 ) ) ;
#252 = EDGE_LOOP ( 'NONE', ( #14, #72, #207, #268 ) ) ;
#253 = APPROVAL ( #219, 'UNSPECIFIED' ) ;
#254 = DIRECTION ( 'NONE',  ( 0.0000000000000000000, 0.0000000000000000000, -1.000000000000000000 ) ) ;
#255 = DIRECTION ( 'NONE',  ( 1.000000000000000000, 0.0000000000000000000, 0.0000000000000000000 ) ) ;
#256 = APPROVAL_DATE_TIME ( #139, #73 ) ;
#257 = VERTEX_POINT ( 'NONE', #79 ) ;
#258 = PERSON_AND_ORGANIZATION_ROLE ( 'design_supplier' ) ;
#259 = CARTESIAN_POINT ( 'NONE',  ( -0.3675103990160568700, 1.220614474678271000, -0.4867995799369360100 ) ) ;
#260 = APPLICATION_PROTOCOL_DEFINITION ( 'international standard', 'config_control_design', 1994, #41 ) ;
#261 = DIRECTION ( 'NONE',  ( 1.000000000000000000, 0.0000000000000000000, 0.0000000000000000000 ) ) ;
#262 = AXIS2_PLACEMENT_3D ( 'NONE', #59, #254, #274 ) ;
#263 = PERSON_AND_ORGANIZATION ( #16, #65 ) ;
#264 = EDGE_CURVE ( 'NONE', #25, #58, #88, .T. ) ;
#265 = DIRECTION ( 'NONE',  ( 0.0000000000000000000, 0.0000000000000000000, -1.000000000000000000 ) ) ;
#266 = ORIENTED_EDGE ( 'NONE', *, *, #87, .F. ) ;
#267 = APPROVAL_PERSON_ORGANIZATION ( #263, #73, #196 ) ;
#268 = ORIENTED_EDGE ( 'NONE', *, *, #133, .F. ) ;
#269 = CARTESIAN_POINT ( 'NONE',  ( -0.8596363832680253800, 1.220614474678271000, -0.4937592923385106800 ) ) ;
#270 = DIRECTION ( 'NONE',  ( 0.0000000000000000000, 0.0000000000000000000, -1.000000000000000000 ) ) ;
#271 = CALENDAR_DATE ( 2018, 19, 7 ) ;
#272 = LINE ( 'NONE', #251, #210 ) ;
#273 = AXIS2_PLACEMENT_3D ( 'NONE', #276, #231, #12 ) ;
#274 = DIRECTION ( 'NONE',  ( 1.000000000000000000, 0.0000000000000000000, 0.0000000000000000000 ) ) ;
#275 = CARTESIAN_POINT ( 'NONE',  ( -0.3744701114176315900, 1.220614474678271000, -0.4937592923385106800 ) ) ;
#276 = CARTESIAN_POINT ( 'NONE',  ( -0.8596363832680253800, 1.220614474678271000, -0.2575388198975657700 ) ) ;
#277 = APPLICATION_CONTEXT ( 'configuration controlled 3d designs of mechanical parts and assemblies' ) ;
#278 = EDGE_CURVE ( 'NONE', #211, #90, #1, .T. ) ;
ENDSEC;
END-ISO-10303-21;
