ISO-10303-21;
HEADER;
FILE_DESCRIPTION (( 'STEP AP203' ),
    '1' );
FILE_NAME ('TTN162749-E0W.STEP',
    '2019-10-24T14:05:19',
    ( '' ),
    ( '' ),
    'SwSTEP 2.0',
    'SolidWorks 2018',
    '' );
FILE_SCHEMA (( 'CONFIG_CONTROL_DESIGN' ));
ENDSEC;

DATA;
#1 = PRODUCT_DEFINITION ( 'UNKNOWN', '', #224, #201 ) ;
#2 = VERTEX_POINT ( 'NONE', #5 ) ;
#3 = AXIS2_PLACEMENT_3D ( 'NONE', #33, #75, #101 ) ;
#4 = CARTESIAN_POINT ( 'NONE',  ( 0.7221584727808447735, 2.405568395087644529, 2.260988373185297995 ) ) ;
#5 = CARTESIAN_POINT ( 'NONE',  ( 0.7221584727808447735, -0.5444316049123556489, 3.482136059966790764 ) ) ;
#6 = AXIS2_PLACEMENT_3D ( 'NONE', #104, #123, #35 ) ;
#7 = LINE ( 'NONE', #4, #125 ) ;
#8 = APPROVAL_ROLE ( '' ) ;
#9 = DIRECTION ( 'NONE',  ( 0.0000000000000000000, -1.000000000000000000, 0.0000000000000000000 ) ) ;
#10 = CIRCLE ( 'NONE', #239, 1.500000000000000000 ) ;
#11 = APPROVAL_ROLE ( '' ) ;
#12 = ORIENTED_EDGE ( 'NONE', *, *, #195, .F. ) ;
#13 = EDGE_LOOP ( 'NONE', ( #73, #29, #39 ) ) ;
#14 = CC_DESIGN_PERSON_AND_ORGANIZATION_ASSIGNMENT ( #45, #83, ( #300 ) ) ;
#15 = CARTESIAN_POINT ( 'NONE',  ( 0.7221584727808447735, 2.355568395087643818, 2.210988373185297284 ) ) ;
#16 = CONICAL_SURFACE ( 'NONE', #197, 1.500000000000000222, 0.7853981633974526089 ) ;
#17 = ORIENTED_EDGE ( 'NONE', *, *, #248, .F. ) ;
#18 = PERSON_AND_ORGANIZATION ( #119, #66 ) ;
#19 = AXIS2_PLACEMENT_3D ( 'NONE', #288, #250, #188 ) ;
#20 = FACE_OUTER_BOUND ( 'NONE', #142, .T. ) ;
#21 = DATE_AND_TIME ( #191, #126 ) ;
#22 = APPROVAL ( #293, 'UNSPECIFIED' ) ;
#23 = ORIENTED_EDGE ( 'NONE', *, *, #164, .F. ) ;
#24 = ORIENTED_EDGE ( 'NONE', *, *, #138, .F. ) ;
#25 = CARTESIAN_POINT ( 'NONE',  ( 0.7221584727808445514, 0.9055683950876443067, -0.9970116268147029004 ) ) ;
#26 = EDGE_CURVE ( 'NONE', #58, #94, #284, .T. ) ;
#27 = AXIS2_PLACEMENT_3D ( 'NONE', #292, #211, #34 ) ;
#28 = ORIENTED_EDGE ( 'NONE', *, *, #195, .T. ) ;
#29 = ORIENTED_EDGE ( 'NONE', *, *, #53, .T. ) ;
#30 = CONICAL_SURFACE ( 'NONE', #171, 1.500000000000000000, 0.7853981633974461696 ) ;
#31 = APPROVAL ( #186, 'UNSPECIFIED' ) ;
#32 = VECTOR ( 'NONE', #235, 1000.000000000000000 ) ;
#33 = CARTESIAN_POINT ( 'NONE',  ( 0.7221584727808445514, 0.9055683950876441957, 2.210988373185297284 ) ) ;
#34 = DIRECTION ( 'NONE',  ( 0.0000000000000000000, -1.000000000000000000, 0.0000000000000000000 ) ) ;
#35 = DIRECTION ( 'NONE',  ( 0.0000000000000000000, 1.000000000000000000, 0.0000000000000000000 ) ) ;
#36 = DIRECTION ( 'NONE',  ( 0.0000000000000000000, -0.7071067811865460184, 0.7071067811865489050 ) ) ;
#37 = LINE ( 'NONE', #205, #285 ) ;
#38 = CARTESIAN_POINT ( 'NONE',  ( 0.7221584727808445514, 0.9055683950876443067, -0.9970116268147029004 ) ) ;
#39 = ORIENTED_EDGE ( 'NONE', *, *, #204, .F. ) ;
#40 = AXIS2_PLACEMENT_3D ( 'NONE', #174, #241, #271 ) ;
#41 = PERSON_AND_ORGANIZATION_ROLE ( 'design_owner' ) ;
#42 = PERSON_AND_ORGANIZATION_ROLE ( 'creator' ) ;
#43 = EDGE_CURVE ( 'NONE', #162, #94, #273, .T. ) ;
#44 = FACE_OUTER_BOUND ( 'NONE', #69, .T. ) ;
#45 = PERSON_AND_ORGANIZATION ( #119, #66 ) ;
#46 = FACE_OUTER_BOUND ( 'NONE', #196, .T. ) ;
#47 = DIRECTION ( 'NONE',  ( 0.0000000000000000000, -1.000000000000000000, 0.0000000000000000000 ) ) ;
#48 = CYLINDRICAL_SURFACE ( 'NONE', #105, 1.500000000000000000 ) ;
#49 = AXIS2_PLACEMENT_3D ( 'NONE', #89, #298, #115 ) ;
#50 = EDGE_LOOP ( 'NONE', ( #193, #170, #92, #28 ) ) ;
#51 = DIRECTION ( 'NONE',  ( -0.0000000000000000000, -3.901805859645347732E-17, 1.000000000000000000 ) ) ;
#52 = DIRECTION ( 'NONE',  ( 0.0000000000000000000, -1.000000000000000000, 0.0000000000000000000 ) ) ;
#53 = EDGE_CURVE ( 'NONE', #2, #159, #279, .T. ) ;
#54 = CARTESIAN_POINT ( 'NONE',  ( 0.7221584727808445514, 0.9055683950876440846, 3.482136059966790764 ) ) ;
#55 = AXIS2_PLACEMENT_3D ( 'NONE', #215, #112, #233 ) ;
#56 = DIRECTION ( 'NONE',  ( -0.0000000000000000000, -3.901805859645347732E-17, 1.000000000000000000 ) ) ;
#57 = CARTESIAN_POINT ( 'NONE',  ( 0.7221584727808445514, 0.9055683950876441957, 2.260988373185297995 ) ) ;
#58 = VERTEX_POINT ( 'NONE', #252 ) ;
#59 = ADVANCED_FACE ( 'NONE', ( #168 ), #264, .T. ) ;
#60 = DIRECTION ( 'NONE',  ( 0.0000000000000000000, 1.000000000000000000, 4.605786629080307114E-17 ) ) ;
#61 = PERSON_AND_ORGANIZATION_ROLE ( 'creator' ) ;
#62 = DIRECTION ( 'NONE',  ( -0.0000000000000000000, -3.901805859645347732E-17, 1.000000000000000000 ) ) ;
#63 = APPLICATION_CONTEXT ( 'configuration controlled 3d designs of mechanical parts and assemblies' ) ;
#64 = ORIENTED_EDGE ( 'NONE', *, *, #151, .T. ) ;
#65 = DIRECTION ( 'NONE',  ( 0.0000000000000000000, 0.0000000000000000000, 1.000000000000000000 ) ) ;
#66 = ORGANIZATION ( 'UNSPECIFIED', 'UNSPECIFIED', '' ) ;
#67 = COORDINATED_UNIVERSAL_TIME_OFFSET ( 5, 0, .BEHIND. ) ;
#68 = CIRCLE ( 'NONE', #276, 1.449999999999999956 ) ;
#69 = EDGE_LOOP ( 'NONE', ( #148, #137, #175, #17 ) ) ;
#70 = FACE_OUTER_BOUND ( 'NONE', #71, .T. ) ;
#71 = EDGE_LOOP ( 'NONE', ( #261, #216 ) ) ;
#72 = FACE_OUTER_BOUND ( 'NONE', #88, .T. ) ;
#73 = ORIENTED_EDGE ( 'NONE', *, *, #177, .T. ) ;
#74 = VERTEX_POINT ( 'NONE', #275 ) ;
#75 = DIRECTION ( 'NONE',  ( 0.0000000000000000000, 3.901805859645347732E-17, -1.000000000000000000 ) ) ;
#76 = DIRECTION ( 'NONE',  ( -0.0000000000000000000, -3.901805859645347732E-17, 1.000000000000000000 ) ) ;
#77 = CC_DESIGN_DATE_AND_TIME_ASSIGNMENT ( #225, #217, ( #300 ) ) ;
#78 = DIRECTION ( 'NONE',  ( -0.0000000000000000000, -3.901805859645347732E-17, 1.000000000000000000 ) ) ;
#79 = VECTOR ( 'NONE', #36, 1000.000000000000114 ) ;
#80 = LOCAL_TIME ( 10, 5, 19.00000000000000000, #281 ) ;
#81 = CARTESIAN_POINT ( 'NONE',  ( 0.7221584727808445514, -0.5944316049123558043, 2.260988373185297995 ) ) ;
#82 = DIRECTION ( 'NONE',  ( 0.0000000000000000000, -1.000000000000000000, 0.0000000000000000000 ) ) ;
#83 = PERSON_AND_ORGANIZATION_ROLE ( 'classification_officer' ) ;
#84 = APPROVAL_PERSON_ORGANIZATION ( #99, #22, #8 ) ;
#85 = CARTESIAN_POINT ( 'NONE',  ( 0.7221584727808445514, 0.9055683950876443067, -0.9970116268147029004 ) ) ;
#86 = APPLICATION_PROTOCOL_DEFINITION ( 'international standard', 'config_control_design', 1994, #63 ) ;
#87 = ORIENTED_EDGE ( 'NONE', *, *, #198, .F. ) ;
#88 = EDGE_LOOP ( 'NONE', ( #24, #64, #116, #140 ) ) ;
#89 = CARTESIAN_POINT ( 'NONE',  ( 0.7221584727808445514, 0.9055683950876443067, 2.210988373185297284 ) ) ;
#90 = DATE_AND_TIME ( #109, #277 ) ;
#91 = EDGE_CURVE ( 'NONE', #74, #136, #190, .T. ) ;
#92 = ORIENTED_EDGE ( 'NONE', *, *, #26, .T. ) ;
#93 = CC_DESIGN_APPROVAL ( #278, ( #300 ) ) ;
#94 = VERTEX_POINT ( 'NONE', #176 ) ;
#95 = CIRCLE ( 'NONE', #40, 1.500000000000000000 ) ;
#96 = COORDINATED_UNIVERSAL_TIME_OFFSET ( 5, 0, .BEHIND. ) ;
#97 = FACE_OUTER_BOUND ( 'NONE', #13, .T. ) ;
#98 = EDGE_CURVE ( 'NONE', #2, #58, #206, .T. ) ;
#99 = PERSON_AND_ORGANIZATION ( #119, #66 ) ;
#100 =( GEOMETRIC_REPRESENTATION_CONTEXT ( 3 ) GLOBAL_UNCERTAINTY_ASSIGNED_CONTEXT ( ( #106 ) ) GLOBAL_UNIT_ASSIGNED_CONTEXT ( ( #297, #274, #249 ) ) REPRESENTATION_CONTEXT ( 'NONE', 'WORKASPACE' ) );
#101 = DIRECTION ( 'NONE',  ( 0.0000000000000000000, -1.000000000000000000, 0.0000000000000000000 ) ) ;
#102 = PRODUCT_RELATED_PRODUCT_CATEGORY ( 'detail', '', ( #194 ) ) ;
#103 = ADVANCED_FACE ( 'NONE', ( #257 ), #155, .T. ) ;
#104 = CARTESIAN_POINT ( 'NONE',  ( 0.7221584727808445514, 0.9055683950876440846, 3.432136059966790942 ) ) ;
#105 = AXIS2_PLACEMENT_3D ( 'NONE', #247, #76, #47 ) ;
#106 = UNCERTAINTY_MEASURE_WITH_UNIT (LENGTH_MEASURE( 1.000000000000000082E-05 ), #297, 'distance_accuracy_value', 'NONE');
#107 = ORIENTED_EDGE ( 'NONE', *, *, #169, .F. ) ;
#108 = FACE_OUTER_BOUND ( 'NONE', #144, .T. ) ;
#109 = CALENDAR_DATE ( 2019, 24, 10 ) ;
#110 = DIRECTION ( 'NONE',  ( -0.0000000000000000000, -3.901805859645347732E-17, 1.000000000000000000 ) ) ;
#111 = EDGE_CURVE ( 'NONE', #136, #173, #220, .T. ) ;
#112 = DIRECTION ( 'NONE',  ( 1.000000000000000000, 0.0000000000000000000, 0.0000000000000000000 ) ) ;
#113 = APPROVAL_STATUS ( 'not_yet_approved' ) ;
#114 = EDGE_CURVE ( 'NONE', #2, #162, #145, .T. ) ;
#115 = DIRECTION ( 'NONE',  ( 0.0000000000000000000, -1.000000000000000000, -3.901805859645347732E-17 ) ) ;
#116 = ORIENTED_EDGE ( 'NONE', *, *, #111, .F. ) ;
#117 = ORIENTED_EDGE ( 'NONE', *, *, #43, .T. ) ;
#118 = CC_DESIGN_DATE_AND_TIME_ASSIGNMENT ( #21, #128, ( #1 ) ) ;
#119 = PERSON ( 'UNSPECIFIED', 'UNSPECIFIED', 'UNSPECIFIED', ('UNSPECIFIED'), ('UNSPECIFIED'), ('UNSPECIFIED') ) ;
#120 = PERSON_AND_ORGANIZATION ( #119, #66 ) ;
#121 = ADVANCED_FACE ( 'NONE', ( #72 ), #30, .T. ) ;
#122 = CARTESIAN_POINT ( 'NONE',  ( 0.7221584727808445514, 0.9055683950876440846, 3.482136059966790764 ) ) ;
#123 = DIRECTION ( 'NONE',  ( 0.0000000000000000000, 3.901805859645347732E-17, -1.000000000000000000 ) ) ;
#124 = DIRECTION ( 'NONE',  ( 0.0000000000000000000, -1.000000000000000000, 0.0000000000000000000 ) ) ;
#125 = VECTOR ( 'NONE', #263, 1000.000000000000114 ) ;
#126 = LOCAL_TIME ( 10, 5, 19.00000000000000000, #67 ) ;
#127 = DIRECTION ( 'NONE',  ( -0.0000000000000000000, -3.901805859645347732E-17, 1.000000000000000000 ) ) ;
#128 = DATE_TIME_ROLE ( 'creation_date' ) ;
#129 = DIRECTION ( 'NONE',  ( 0.0000000000000000000, -1.000000000000000000, 0.0000000000000000000 ) ) ;
#130 = CIRCLE ( 'NONE', #3, 1.449999999999999956 ) ;
#131 = CARTESIAN_POINT ( 'NONE',  ( 0.7221584727808445514, 0.9055683950876441957, 2.260988373185297995 ) ) ;
#132 = APPROVAL_DATE_TIME ( #90, #22 ) ;
#133 = DIRECTION ( 'NONE',  ( -1.000000000000000000, 1.224646799147353207E-16, 4.778334056909062030E-33 ) ) ;
#134 = EDGE_LOOP ( 'NONE', ( #143, #107, #282, #87 ) ) ;
#135 = APPLICATION_PROTOCOL_DEFINITION ( 'international standard', 'config_control_design', 1994, #272 ) ;
#136 = VERTEX_POINT ( 'NONE', #150 ) ;
#137 = ORIENTED_EDGE ( 'NONE', *, *, #164, .T. ) ;
#138 = EDGE_CURVE ( 'NONE', #287, #74, #68, .T. ) ;
#139 = VECTOR ( 'NONE', #179, 1000.000000000000000 ) ;
#140 = ORIENTED_EDGE ( 'NONE', *, *, #91, .F. ) ;
#141 = APPROVAL_PERSON_ORGANIZATION ( #270, #278, #11 ) ;
#142 = EDGE_LOOP ( 'NONE', ( #178, #166, #296 ) ) ;
#143 = ORIENTED_EDGE ( 'NONE', *, *, #151, .F. ) ;
#144 = EDGE_LOOP ( 'NONE', ( #23, #226, #238, #12 ) ) ;
#145 = LINE ( 'NONE', #229, #139 ) ;
#146 = PERSON_AND_ORGANIZATION ( #119, #66 ) ;
#147 = ADVANCED_FACE ( 'NONE', ( #46 ), #16, .T. ) ;
#148 = ORIENTED_EDGE ( 'NONE', *, *, #111, .T. ) ;
#149 = CC_DESIGN_APPROVAL ( #22, ( #1 ) ) ;
#150 = CARTESIAN_POINT ( 'NONE',  ( 0.7221584727808445514, -0.5944316049123558043, 2.260988373185297995 ) ) ;
#151 = EDGE_CURVE ( 'NONE', #287, #173, #7, .T. ) ;
#152 = ADVANCED_FACE ( 'NONE', ( #108 ), #200, .T. ) ;
#153 = ADVANCED_BREP_SHAPE_REPRESENTATION ( 'TTN162749-E0W', ( #256, #236 ), #100 ) ;
#154 = DIRECTION ( 'NONE',  ( 0.0000000000000000000, 3.901805859645347732E-17, -1.000000000000000000 ) ) ;
#155 = CONICAL_SURFACE ( 'NONE', #6, 1.500000000000000222, 0.7853981633974526089 ) ;
#156 = DIRECTION ( 'NONE',  ( -0.0000000000000000000, -3.901805859645355128E-17, 1.000000000000000000 ) ) ;
#157 = SHAPE_DEFINITION_REPRESENTATION ( #301, #153 ) ;
#158 = DIRECTION ( 'NONE',  ( -1.000000000000000000, 0.0000000000000000000, 0.0000000000000000000 ) ) ;
#159 = VERTEX_POINT ( 'NONE', #227 ) ;
#160 = VECTOR ( 'NONE', #62, 1000.000000000000000 ) ;
#161 = CARTESIAN_POINT ( 'NONE',  ( 0.0000000000000000000, 0.0000000000000000000, 0.0000000000000000000 ) ) ;
#162 = VERTEX_POINT ( 'NONE', #290 ) ;
#163 = PERSON_AND_ORGANIZATION ( #119, #66 ) ;
#164 = EDGE_CURVE ( 'NONE', #173, #94, #37, .T. ) ;
#165 = CALENDAR_DATE ( 2019, 24, 10 ) ;
#166 = ORIENTED_EDGE ( 'NONE', *, *, #98, .T. ) ;
#167 = CC_DESIGN_PERSON_AND_ORGANIZATION_ASSIGNMENT ( #221, #61, ( #224 ) ) ;
#168 = FACE_OUTER_BOUND ( 'NONE', #134, .T. ) ;
#169 = EDGE_CURVE ( 'NONE', #74, #287, #130, .T. ) ;
#170 = ORIENTED_EDGE ( 'NONE', *, *, #177, .F. ) ;
#171 = AXIS2_PLACEMENT_3D ( 'NONE', #57, #156, #124 ) ;
#172 = APPROVAL_DATE_TIME ( #291, #31 ) ;
#173 = VERTEX_POINT ( 'NONE', #182 ) ;
#174 = CARTESIAN_POINT ( 'NONE',  ( 0.7221584727808445514, 0.9055683950876440846, 3.432136059966790942 ) ) ;
#175 = ORIENTED_EDGE ( 'NONE', *, *, #43, .F. ) ;
#176 = CARTESIAN_POINT ( 'NONE',  ( 0.7221584727808447735, 2.405568395087644529, 3.432136059966790942 ) ) ;
#177 = EDGE_CURVE ( 'NONE', #58, #2, #246, .T. ) ;
#178 = ORIENTED_EDGE ( 'NONE', *, *, #53, .F. ) ;
#179 = DIRECTION ( 'NONE',  ( 8.659560562354969836E-17, -0.7071067811865505703, -0.7071067811865444641 ) ) ;
#180 = APPROVAL_ROLE ( '' ) ;
#181 = ORIENTED_EDGE ( 'NONE', *, *, #26, .F. ) ;
#182 = CARTESIAN_POINT ( 'NONE',  ( 0.7221584727808447735, 2.405568395087644529, 2.260988373185297995 ) ) ;
#183 = DIRECTION ( 'NONE',  ( 0.0000000000000000000, -1.000000000000000000, 0.0000000000000000000 ) ) ;
#184 = DIRECTION ( 'NONE',  ( -0.0000000000000000000, -3.901805859645355128E-17, 1.000000000000000000 ) ) ;
#185 = SECURITY_CLASSIFICATION_LEVEL ( 'unclassified' ) ;
#186 = APPROVAL_STATUS ( 'not_yet_approved' ) ;
#187 = AXIS2_PLACEMENT_3D ( 'NONE', #122, #56, #52 ) ;
#188 = DIRECTION ( 'NONE',  ( 0.0000000000000000000, -1.000000000000000000, 0.0000000000000000000 ) ) ;
#189 = MECHANICAL_CONTEXT ( 'NONE', #272, 'mechanical' ) ;
#190 = LINE ( 'NONE', #81, #79 ) ;
#191 = CALENDAR_DATE ( 2019, 24, 10 ) ;
#192 = AXIS2_PLACEMENT_3D ( 'NONE', #85, #158, #245 ) ;
#193 = ORIENTED_EDGE ( 'NONE', *, *, #114, .F. ) ;
#194 = PRODUCT ( 'TTN162749-E0W', 'TTN162749-E0W', '', ( #189 ) ) ;
#195 = EDGE_CURVE ( 'NONE', #94, #162, #95, .T. ) ;
#196 = EDGE_LOOP ( 'NONE', ( #222, #237, #117, #181 ) ) ;
#197 = AXIS2_PLACEMENT_3D ( 'NONE', #289, #154, #209 ) ;
#198 = EDGE_CURVE ( 'NONE', #173, #136, #10, .T. ) ;
#199 = CARTESIAN_POINT ( 'NONE',  ( 0.7221584727808445514, 0.9055683950876440846, 3.432136059966790942 ) ) ;
#200 = CYLINDRICAL_SURFACE ( 'NONE', #202, 1.500000000000000000 ) ;
#201 = DESIGN_CONTEXT ( 'detailed design', #63, 'design' ) ;
#202 = AXIS2_PLACEMENT_3D ( 'NONE', #267, #127, #9 ) ;
#203 = CARTESIAN_POINT ( 'NONE',  ( 0.7221584727808445514, -0.5944316049123559154, 3.710988373185297284 ) ) ;
#204 = EDGE_CURVE ( 'NONE', #58, #159, #269, .T. ) ;
#205 = CARTESIAN_POINT ( 'NONE',  ( 0.7221584727808447735, 2.405568395087644529, 3.710988373185297284 ) ) ;
#206 = CIRCLE ( 'NONE', #187, 1.449999999999999734 ) ;
#207 = CLOSED_SHELL ( 'NONE', ( #121, #262, #147, #266, #286, #152, #103, #230, #59 ) ) ;
#208 = COORDINATED_UNIVERSAL_TIME_OFFSET ( 5, 0, .BEHIND. ) ;
#209 = DIRECTION ( 'NONE',  ( 0.0000000000000000000, 1.000000000000000000, 0.0000000000000000000 ) ) ;
#210 = CC_DESIGN_PERSON_AND_ORGANIZATION_ASSIGNMENT ( #163, #42, ( #1 ) ) ;
#211 = DIRECTION ( 'NONE',  ( -0.0000000000000000000, -3.901805859645355128E-17, 1.000000000000000000 ) ) ;
#212 = LINE ( 'NONE', #203, #160 ) ;
#213 = DIRECTION ( 'NONE',  ( -1.000000000000000000, 0.0000000000000000000, 0.0000000000000000000 ) ) ;
#214 = LOCAL_TIME ( 10, 5, 19.00000000000000000, #260 ) ;
#215 = CARTESIAN_POINT ( 'NONE',  ( 0.7221584727808445514, 0.9055683950876443067, -0.9970116268147029004 ) ) ;
#216 = ORIENTED_EDGE ( 'NONE', *, *, #138, .T. ) ;
#217 = DATE_TIME_ROLE ( 'classification_date' ) ;
#218 = PLANE ( 'NONE',  #49 ) ;
#219 = AXIS2_PLACEMENT_3D ( 'NONE', #54, #78, #228 ) ;
#220 = CIRCLE ( 'NONE', #27, 1.500000000000000000 ) ;
#221 = PERSON_AND_ORGANIZATION ( #119, #66 ) ;
#222 = ORIENTED_EDGE ( 'NONE', *, *, #98, .F. ) ;
#223 = AXIS2_PLACEMENT_3D ( 'NONE', #199, #51, #183 ) ;
#224 = PRODUCT_DEFINITION_FORMATION_WITH_SPECIFIED_SOURCE ( 'ANY', '', #194, .NOT_KNOWN. ) ;
#225 = DATE_AND_TIME ( #165, #214 ) ;
#226 = ORIENTED_EDGE ( 'NONE', *, *, #198, .T. ) ;
#227 = CARTESIAN_POINT ( 'NONE',  ( 0.7221584727808445514, 0.9055683950876444177, 3.710988373185297284 ) ) ;
#228 = DIRECTION ( 'NONE',  ( 0.0000000000000000000, -1.000000000000000000, 0.0000000000000000000 ) ) ;
#229 = CARTESIAN_POINT ( 'NONE',  ( 0.7221584727808447735, -0.5944316049123559154, 3.432136059966790942 ) ) ;
#230 = ADVANCED_FACE ( 'NONE', ( #20 ), #244, .T. ) ;
#231 = APPROVAL_PERSON_ORGANIZATION ( #120, #31, #180 ) ;
#232 = PERSON_AND_ORGANIZATION_ROLE ( 'design_supplier' ) ;
#233 = DIRECTION ( 'NONE',  ( 0.0000000000000000000, 0.0000000000000000000, -1.000000000000000000 ) ) ;
#234 = DIRECTION ( 'NONE',  ( 1.000000000000000000, 0.0000000000000000000, 0.0000000000000000000 ) ) ;
#235 = DIRECTION ( 'NONE',  ( 0.0000000000000000000, 0.7071067811865505703, -0.7071067811865444641 ) ) ;
#236 = AXIS2_PLACEMENT_3D ( 'NONE', #161, #65, #234 ) ;
#237 = ORIENTED_EDGE ( 'NONE', *, *, #114, .T. ) ;
#238 = ORIENTED_EDGE ( 'NONE', *, *, #248, .T. ) ;
#239 = AXIS2_PLACEMENT_3D ( 'NONE', #131, #184, #82 ) ;
#240 = CC_DESIGN_PERSON_AND_ORGANIZATION_ASSIGNMENT ( #18, #232, ( #224 ) ) ;
#241 = DIRECTION ( 'NONE',  ( -0.0000000000000000000, -3.901805859645347732E-17, 1.000000000000000000 ) ) ;
#242 = CARTESIAN_POINT ( 'NONE',  ( 0.7221584727808445514, 0.9055683950876441957, 2.210988373185297284 ) ) ;
#243 = CC_DESIGN_PERSON_AND_ORGANIZATION_ASSIGNMENT ( #146, #41, ( #194 ) ) ;
#244 = SPHERICAL_SURFACE ( 'NONE', #254, 4.708000000000000185 ) ;
#245 = DIRECTION ( 'NONE',  ( 0.0000000000000000000, 1.000000000000000000, 4.605786629080307114E-17 ) ) ;
#246 = CIRCLE ( 'NONE', #219, 1.449999999999999734 ) ;
#247 = CARTESIAN_POINT ( 'NONE',  ( 0.7221584727808445514, 0.9055683950876440846, 3.710988373185297284 ) ) ;
#248 = EDGE_CURVE ( 'NONE', #136, #162, #212, .T. ) ;
#249 =( NAMED_UNIT ( * ) SI_UNIT ( $, .STERADIAN. ) SOLID_ANGLE_UNIT ( ) );
#250 = DIRECTION ( 'NONE',  ( -0.0000000000000000000, -3.901805859645355128E-17, 1.000000000000000000 ) ) ;
#251 = APPROVAL_DATE_TIME ( #299, #278 ) ;
#252 = CARTESIAN_POINT ( 'NONE',  ( 0.7221584727808445514, 2.355568395087643818, 3.482136059966790764 ) ) ;
#253 = CALENDAR_DATE ( 2019, 24, 10 ) ;
#254 = AXIS2_PLACEMENT_3D ( 'NONE', #38, #213, #60 ) ;
#255 = AXIS2_PLACEMENT_3D ( 'NONE', #25, #133, #295 ) ;
#256 = MANIFOLD_SOLID_BREP ( 'TTN162701-1-solid1', #207 ) ;
#257 = FACE_OUTER_BOUND ( 'NONE', #50, .T. ) ;
#258 = LOCAL_TIME ( 10, 5, 19.00000000000000000, #96 ) ;
#259 = CARTESIAN_POINT ( 'NONE',  ( 0.7221584727808445514, 2.405568395087644529, 3.432136059966790942 ) ) ;
#260 = COORDINATED_UNIVERSAL_TIME_OFFSET ( 5, 0, .BEHIND. ) ;
#261 = ORIENTED_EDGE ( 'NONE', *, *, #169, .T. ) ;
#262 = ADVANCED_FACE ( 'NONE', ( #97 ), #265, .T. ) ;
#263 = DIRECTION ( 'NONE',  ( 8.659560562354913137E-17, 0.7071067811865460184, 0.7071067811865489050 ) ) ;
#264 = CONICAL_SURFACE ( 'NONE', #19, 1.500000000000000000, 0.7853981633974461696 ) ;
#265 = SPHERICAL_SURFACE ( 'NONE', #192, 4.708000000000000185 ) ;
#266 = ADVANCED_FACE ( 'NONE', ( #44 ), #48, .T. ) ;
#267 = CARTESIAN_POINT ( 'NONE',  ( 0.7221584727808445514, 0.9055683950876440846, 3.710988373185297284 ) ) ;
#268 = DIRECTION ( 'NONE',  ( 0.0000000000000000000, 3.901805859645347732E-17, -1.000000000000000000 ) ) ;
#269 = CIRCLE ( 'NONE', #55, 4.708000000000000185 ) ;
#270 = PERSON_AND_ORGANIZATION ( #119, #66 ) ;
#271 = DIRECTION ( 'NONE',  ( 0.0000000000000000000, -1.000000000000000000, 0.0000000000000000000 ) ) ;
#272 = APPLICATION_CONTEXT ( 'configuration controlled 3d designs of mechanical parts and assemblies' ) ;
#273 = CIRCLE ( 'NONE', #223, 1.500000000000000000 ) ;
#274 =( NAMED_UNIT ( * ) PLANE_ANGLE_UNIT ( ) SI_UNIT ( $, .RADIAN. ) );
#275 = CARTESIAN_POINT ( 'NONE',  ( 0.7221584727808445514, -0.5444316049123557599, 2.210988373185297284 ) ) ;
#276 = AXIS2_PLACEMENT_3D ( 'NONE', #242, #268, #129 ) ;
#277 = LOCAL_TIME ( 10, 5, 19.00000000000000000, #208 ) ;
#278 = APPROVAL ( #113, 'UNSPECIFIED' ) ;
#279 = CIRCLE ( 'NONE', #255, 4.708000000000000185 ) ;
#280 = CALENDAR_DATE ( 2019, 24, 10 ) ;
#281 = COORDINATED_UNIVERSAL_TIME_OFFSET ( 5, 0, .BEHIND. ) ;
#282 = ORIENTED_EDGE ( 'NONE', *, *, #91, .T. ) ;
#283 = CC_DESIGN_APPROVAL ( #31, ( #224 ) ) ;
#284 = LINE ( 'NONE', #259, #32 ) ;
#285 = VECTOR ( 'NONE', #110, 1000.000000000000000 ) ;
#286 = ADVANCED_FACE ( 'NONE', ( #70 ), #218, .F. ) ;
#287 = VERTEX_POINT ( 'NONE', #15 ) ;
#288 = CARTESIAN_POINT ( 'NONE',  ( 0.7221584727808445514, 0.9055683950876441957, 2.260988373185297995 ) ) ;
#289 = CARTESIAN_POINT ( 'NONE',  ( 0.7221584727808445514, 0.9055683950876440846, 3.432136059966790942 ) ) ;
#290 = CARTESIAN_POINT ( 'NONE',  ( 0.7221584727808445514, -0.5944316049123559154, 3.432136059966790942 ) ) ;
#291 = DATE_AND_TIME ( #280, #80 ) ;
#292 = CARTESIAN_POINT ( 'NONE',  ( 0.7221584727808445514, 0.9055683950876441957, 2.260988373185297995 ) ) ;
#293 = APPROVAL_STATUS ( 'not_yet_approved' ) ;
#294 = CC_DESIGN_SECURITY_CLASSIFICATION ( #300, ( #224 ) ) ;
#295 = DIRECTION ( 'NONE',  ( -1.151446657270076840E-16, -1.000000000000000000, 0.0000000000000000000 ) ) ;
#296 = ORIENTED_EDGE ( 'NONE', *, *, #204, .T. ) ;
#297 =( LENGTH_UNIT ( ) NAMED_UNIT ( * ) SI_UNIT ( .MILLI., .METRE. ) );
#298 = DIRECTION ( 'NONE',  ( 0.0000000000000000000, -3.901805859645347732E-17, 1.000000000000000000 ) ) ;
#299 = DATE_AND_TIME ( #253, #258 ) ;
#300 = SECURITY_CLASSIFICATION ( '', '', #185 ) ;
#301 = PRODUCT_DEFINITION_SHAPE ( 'NONE', 'NONE',  #1 ) ;
ENDSEC;
END-ISO-10303-21;
