ISO-10303-21;
HEADER;
FILE_DESCRIPTION (( 'STEP AP203' ),
    '1' );
FILE_NAME ('Web Model 15741_15741.step',
    '2020-10-19T15:32:22',
    ( '' ),
    ( '' ),
    'SwSTEP 2.0',
    'SolidWorks 2018',
    '' );
FILE_SCHEMA (( 'CONFIG_CONTROL_DESIGN' ));
ENDSEC;

DATA;
#1 = LINE ( 'NONE', #194, #38 ) ;
#2 = CC_DESIGN_PERSON_AND_ORGANIZATION_ASSIGNMENT ( #170, #223, ( #16 ) ) ;
#3 = APPROVAL_DATE_TIME ( #219, #29 ) ;
#4 = VERTEX_POINT ( 'NONE', #77 ) ;
#5 = APPROVAL_PERSON_ORGANIZATION ( #187, #193, #229 ) ;
#6 = AXIS2_PLACEMENT_3D ( 'NONE', #30, #214, #45 ) ;
#7 = PLANE ( 'NONE',  #53 ) ;
#8 = DIRECTION ( 'NONE',  ( 0.0000000000000000000, 0.0000000000000000000, 1.000000000000000000 ) ) ;
#9 = CC_DESIGN_PERSON_AND_ORGANIZATION_ASSIGNMENT ( #196, #74, ( #68 ) ) ;
#10 = DIRECTION ( 'NONE',  ( -3.469446951953613573E-17, 1.000000000000000000, 0.0000000000000000000 ) ) ;
#11 = DIRECTION ( 'NONE',  ( -0.0000000000000000000, -0.0000000000000000000, -1.000000000000000000 ) ) ;
#12 = ORIENTED_EDGE ( 'NONE', *, *, #140, .F. ) ;
#13 = CARTESIAN_POINT ( 'NONE',  ( -25.00000000000000000, -12.50000000000000000, -3.000000000000000000 ) ) ;
#14 = DIRECTION ( 'NONE',  ( -1.000000000000000000, -1.387778780781445429E-16, 0.0000000000000000000 ) ) ;
#15 = CARTESIAN_POINT ( 'NONE',  ( 24.99999999999999645, 12.50000000000000533, -3.000000000000000000 ) ) ;
#16 = PRODUCT_DEFINITION_FORMATION_WITH_SPECIFIED_SOURCE ( 'ANY', '', #115, .NOT_KNOWN. ) ;
#17 = EDGE_CURVE ( 'NONE', #126, #33, #164, .T. ) ;
#18 = ORIENTED_EDGE ( 'NONE', *, *, #156, .F. ) ;
#19 = CARTESIAN_POINT ( 'NONE',  ( -25.00000000000000000, -12.50000000000000000, 3.000000000000000000 ) ) ;
#20 = EDGE_CURVE ( 'NONE', #22, #21, #160, .T. ) ;
#21 = VERTEX_POINT ( 'NONE', #97 ) ;
#22 = VERTEX_POINT ( 'NONE', #98 ) ;
#23 = ORIENTED_EDGE ( 'NONE', *, *, #70, .F. ) ;
#24 = CARTESIAN_POINT ( 'NONE',  ( 24.99999999999999645, 12.50000000000000533, 3.000000000000000000 ) ) ;
#25 = DIRECTION ( 'NONE',  ( 1.000000000000000000, 0.0000000000000000000, -0.0000000000000000000 ) ) ;
#26 = CC_DESIGN_PERSON_AND_ORGANIZATION_ASSIGNMENT ( #207, #67, ( #227 ) ) ;
#27 = LINE ( 'NONE', #209, #28 ) ;
#28 = VECTOR ( 'NONE', #101, 1000.000000000000000 ) ;
#29 = APPROVAL ( #183, 'UNSPECIFIED' ) ;
#30 = CARTESIAN_POINT ( 'NONE',  ( 0.0000000000000000000, 0.0000000000000000000, -3.000000000000000000 ) ) ;
#31 = DIRECTION ( 'NONE',  ( -1.387778780781445429E-16, 1.000000000000000000, 0.0000000000000000000 ) ) ;
#32 = APPROVAL_DATE_TIME ( #132, #166 ) ;
#33 = VERTEX_POINT ( 'NONE', #231 ) ;
#34 = ADVANCED_FACE ( 'NONE', ( #151 ), #42, .F. ) ;
#35 = APPROVAL_PERSON_ORGANIZATION ( #82, #29, #186 ) ;
#36 = EDGE_CURVE ( 'NONE', #61, #126, #79, .T. ) ;
#37 = UNCERTAINTY_MEASURE_WITH_UNIT (LENGTH_MEASURE( 1.000000000000000082E-05 ), #128, 'distance_accuracy_value', 'NONE');
#38 = VECTOR ( 'NONE', #218, 1000.000000000000000 ) ;
#39 = PRODUCT_RELATED_PRODUCT_CATEGORY ( 'detail', '', ( #115 ) ) ;
#40 = VERTEX_POINT ( 'NONE', #13 ) ;
#41 = FACE_OUTER_BOUND ( 'NONE', #46, .T. ) ;
#42 = PLANE ( 'NONE',  #64 ) ;
#43 = VECTOR ( 'NONE', #165, 1000.000000000000000 ) ;
#44 = EDGE_CURVE ( 'NONE', #40, #4, #185, .T. ) ;
#45 = DIRECTION ( 'NONE',  ( 1.000000000000000000, 0.0000000000000000000, -0.0000000000000000000 ) ) ;
#46 = EDGE_LOOP ( 'NONE', ( #110, #208, #158, #85 ) ) ;
#47 = PLANE ( 'NONE',  #205 ) ;
#48 = MANIFOLD_SOLID_BREP ( 'Boss-Extrude1', #104 ) ;
#49 = COORDINATED_UNIVERSAL_TIME_OFFSET ( 5, 0, .BEHIND. ) ;
#50 = AXIS2_PLACEMENT_3D ( 'NONE', #24, #109, #90 ) ;
#51 = ORIENTED_EDGE ( 'NONE', *, *, #36, .F. ) ;
#52 = PERSON_AND_ORGANIZATION ( #197, #163 ) ;
#53 = AXIS2_PLACEMENT_3D ( 'NONE', #69, #178, #25 ) ;
#54 = EDGE_CURVE ( 'NONE', #4, #21, #222, .T. ) ;
#55 = APPROVAL_STATUS ( 'not_yet_approved' ) ;
#56 = CARTESIAN_POINT ( 'NONE',  ( 25.00000000000000000, -12.49999999999999822, 3.000000000000000000 ) ) ;
#57 = CARTESIAN_POINT ( 'NONE',  ( -25.00000000000000000, 12.50000000000000000, 3.000000000000000000 ) ) ;
#58 = ORIENTED_EDGE ( 'NONE', *, *, #20, .F. ) ;
#59 = DIRECTION ( 'NONE',  ( 1.000000000000000000, 3.469446951953614189E-17, -0.0000000000000000000 ) ) ;
#60 = CC_DESIGN_PERSON_AND_ORGANIZATION_ASSIGNMENT ( #122, #96, ( #16 ) ) ;
#61 = VERTEX_POINT ( 'NONE', #57 ) ;
#62 = LINE ( 'NONE', #103, #155 ) ;
#63 = CC_DESIGN_DATE_AND_TIME_ASSIGNMENT ( #190, #95, ( #68 ) ) ;
#64 = AXIS2_PLACEMENT_3D ( 'NONE', #146, #99, #232 ) ;
#65 = SECURITY_CLASSIFICATION_LEVEL ( 'unclassified' ) ;
#66 = ORIENTED_EDGE ( 'NONE', *, *, #172, .T. ) ;
#67 = PERSON_AND_ORGANIZATION_ROLE ( 'classification_officer' ) ;
#68 = PRODUCT_DEFINITION ( 'UNKNOWN', '', #16, #168 ) ;
#69 = CARTESIAN_POINT ( 'NONE',  ( 0.0000000000000000000, 0.0000000000000000000, 3.000000000000000000 ) ) ;
#70 = EDGE_CURVE ( 'NONE', #154, #40, #27, .T. ) ;
#71 = ORIENTED_EDGE ( 'NONE', *, *, #70, .T. ) ;
#72 =( NAMED_UNIT ( * ) SI_UNIT ( $, .STERADIAN. ) SOLID_ANGLE_UNIT ( ) );
#73 = APPLICATION_CONTEXT ( 'configuration controlled 3d designs of mechanical parts and assemblies' ) ;
#74 = PERSON_AND_ORGANIZATION_ROLE ( 'creator' ) ;
#75 = VECTOR ( 'NONE', #84, 1000.000000000000000 ) ;
#76 = EDGE_LOOP ( 'NONE', ( #100, #81, #200, #149 ) ) ;
#77 = CARTESIAN_POINT ( 'NONE',  ( 25.00000000000000000, -12.49999999999999822, -3.000000000000000000 ) ) ;
#78 = DIRECTION ( 'NONE',  ( -1.387778780781445429E-16, 1.000000000000000000, 0.0000000000000000000 ) ) ;
#79 = LINE ( 'NONE', #129, #87 ) ;
#80 = DATE_AND_TIME ( #235, #157 ) ;
#81 = ORIENTED_EDGE ( 'NONE', *, *, #172, .F. ) ;
#82 = PERSON_AND_ORGANIZATION ( #197, #163 ) ;
#83 = ADVANCED_FACE ( 'NONE', ( #177 ), #134, .F. ) ;
#84 = DIRECTION ( 'NONE',  ( -0.0000000000000000000, -0.0000000000000000000, -1.000000000000000000 ) ) ;
#85 = ORIENTED_EDGE ( 'NONE', *, *, #156, .T. ) ;
#86 = DIRECTION ( 'NONE',  ( -0.0000000000000000000, -0.0000000000000000000, -1.000000000000000000 ) ) ;
#87 = VECTOR ( 'NONE', #206, 1000.000000000000000 ) ;
#88 = CALENDAR_DATE ( 2020, 19, 10 ) ;
#89 = APPLICATION_PROTOCOL_DEFINITION ( 'international standard', 'config_control_design', 1994, #73 ) ;
#90 = DIRECTION ( 'NONE',  ( 1.000000000000000000, 1.040834085586084133E-16, 0.0000000000000000000 ) ) ;
#91 = PERSON_AND_ORGANIZATION_ROLE ( 'design_owner' ) ;
#92 = VECTOR ( 'NONE', #86, 1000.000000000000000 ) ;
#93 = LOCAL_TIME ( 11, 32, 22.00000000000000000, #141 ) ;
#94 = APPROVAL_STATUS ( 'not_yet_approved' ) ;
#95 = DATE_TIME_ROLE ( 'creation_date' ) ;
#96 = PERSON_AND_ORGANIZATION_ROLE ( 'design_supplier' ) ;
#97 = CARTESIAN_POINT ( 'NONE',  ( 24.99999999999999645, 12.50000000000000533, -3.000000000000000000 ) ) ;
#98 = CARTESIAN_POINT ( 'NONE',  ( 24.99999999999999645, 12.50000000000000533, 3.000000000000000000 ) ) ;
#99 = DIRECTION ( 'NONE',  ( 1.000000000000000000, 0.0000000000000000000, 0.0000000000000000000 ) ) ;
#100 = ORIENTED_EDGE ( 'NONE', *, *, #140, .T. ) ;
#101 = DIRECTION ( 'NONE',  ( -0.0000000000000000000, -1.000000000000000000, -0.0000000000000000000 ) ) ;
#102 = ADVANCED_FACE ( 'NONE', ( #211 ), #116, .F. ) ;
#103 = CARTESIAN_POINT ( 'NONE',  ( 25.00000000000000000, -12.49999999999999822, 3.000000000000000000 ) ) ;
#104 = CLOSED_SHELL ( 'NONE', ( #34, #189, #83, #215, #234, #102 ) ) ;
#105 = DIRECTION ( 'NONE',  ( -0.0000000000000000000, -0.0000000000000000000, -1.000000000000000000 ) ) ;
#106 = VECTOR ( 'NONE', #11, 1000.000000000000000 ) ;
#107 = COORDINATED_UNIVERSAL_TIME_OFFSET ( 5, 0, .BEHIND. ) ;
#108 = ORIENTED_EDGE ( 'NONE', *, *, #152, .T. ) ;
#109 = DIRECTION ( 'NONE',  ( 1.040834085586084133E-16, -1.000000000000000000, 0.0000000000000000000 ) ) ;
#110 = ORIENTED_EDGE ( 'NONE', *, *, #44, .T. ) ;
#111 = APPROVAL_DATE_TIME ( #114, #193 ) ;
#112 = ORIENTED_EDGE ( 'NONE', *, *, #161, .T. ) ;
#113 = VECTOR ( 'NONE', #136, 1000.000000000000000 ) ;
#114 = DATE_AND_TIME ( #88, #138 ) ;
#115 = PRODUCT ( 'Web Model 15741_15741', 'Web Model 15741_15741', '', ( #225 ) ) ;
#116 = PLANE ( 'NONE',  #6 ) ;
#117 = CARTESIAN_POINT ( 'NONE',  ( 25.00000000000000000, -12.49999999999999822, 3.000000000000000000 ) ) ;
#118 = LINE ( 'NONE', #19, #92 ) ;
#119 = VECTOR ( 'NONE', #59, 1000.000000000000000 ) ;
#120 = CC_DESIGN_APPROVAL ( #166, ( #227 ) ) ;
#121 = VECTOR ( 'NONE', #105, 1000.000000000000000 ) ;
#122 = PERSON_AND_ORGANIZATION ( #197, #163 ) ;
#123 = EDGE_LOOP ( 'NONE', ( #216, #137, #108, #112 ) ) ;
#124 = APPROVAL_ROLE ( '' ) ;
#125 = LOCAL_TIME ( 11, 32, 22.00000000000000000, #107 ) ;
#126 = VERTEX_POINT ( 'NONE', #212 ) ;
#127 = CALENDAR_DATE ( 2020, 19, 10 ) ;
#128 =( LENGTH_UNIT ( ) NAMED_UNIT ( * ) SI_UNIT ( .MILLI., .METRE. ) );
#129 = CARTESIAN_POINT ( 'NONE',  ( -25.00000000000000000, -12.50000000000000000, 3.000000000000000000 ) ) ;
#130 = PRODUCT_DEFINITION_SHAPE ( 'NONE', 'NONE',  #68 ) ;
#131 = CARTESIAN_POINT ( 'NONE',  ( 25.00000000000000000, -12.49999999999999822, -3.000000000000000000 ) ) ;
#132 = DATE_AND_TIME ( #199, #125 ) ;
#133 = ORIENTED_EDGE ( 'NONE', *, *, #184, .T. ) ;
#134 = PLANE ( 'NONE',  #175 ) ;
#135 = CALENDAR_DATE ( 2020, 19, 10 ) ;
#136 = DIRECTION ( 'NONE',  ( -1.000000000000000000, -1.040834085586084257E-16, 0.0000000000000000000 ) ) ;
#137 = ORIENTED_EDGE ( 'NONE', *, *, #17, .T. ) ;
#138 = LOCAL_TIME ( 11, 32, 22.00000000000000000, #228 ) ;
#139 =( GEOMETRIC_REPRESENTATION_CONTEXT ( 3 ) GLOBAL_UNCERTAINTY_ASSIGNED_CONTEXT ( ( #37 ) ) GLOBAL_UNIT_ASSIGNED_CONTEXT ( ( #128, #201, #72 ) ) REPRESENTATION_CONTEXT ( 'NONE', 'WORKASPACE' ) );
#140 = EDGE_CURVE ( 'NONE', #21, #154, #167, .T. ) ;
#141 = COORDINATED_UNIVERSAL_TIME_OFFSET ( 5, 0, .BEHIND. ) ;
#142 = PLANE ( 'NONE',  #50 ) ;
#143 = FACE_OUTER_BOUND ( 'NONE', #76, .T. ) ;
#144 = APPLICATION_CONTEXT ( 'configuration controlled 3d designs of mechanical parts and assemblies' ) ;
#145 = CARTESIAN_POINT ( 'NONE',  ( 0.0000000000000000000, 0.0000000000000000000, 0.0000000000000000000 ) ) ;
#146 = CARTESIAN_POINT ( 'NONE',  ( -25.00000000000000000, -12.50000000000000000, 3.000000000000000000 ) ) ;
#147 = AXIS2_PLACEMENT_3D ( 'NONE', #145, #8, #204 ) ;
#148 = CARTESIAN_POINT ( 'NONE',  ( 25.00000000000000000, -12.49999999999999822, -3.000000000000000000 ) ) ;
#149 = ORIENTED_EDGE ( 'NONE', *, *, #20, .T. ) ;
#150 = COORDINATED_UNIVERSAL_TIME_OFFSET ( 5, 0, .BEHIND. ) ;
#151 = FACE_OUTER_BOUND ( 'NONE', #236, .T. ) ;
#152 = EDGE_CURVE ( 'NONE', #33, #22, #62, .T. ) ;
#153 = APPROVAL_PERSON_ORGANIZATION ( #221, #166, #124 ) ;
#154 = VERTEX_POINT ( 'NONE', #191 ) ;
#155 = VECTOR ( 'NONE', #31, 1000.000000000000000 ) ;
#156 = EDGE_CURVE ( 'NONE', #126, #40, #118, .T. ) ;
#157 = LOCAL_TIME ( 11, 32, 22.00000000000000000, #150 ) ;
#158 = ORIENTED_EDGE ( 'NONE', *, *, #17, .F. ) ;
#159 = DATE_TIME_ROLE ( 'classification_date' ) ;
#160 = LINE ( 'NONE', #188, #106 ) ;
#161 = EDGE_CURVE ( 'NONE', #22, #61, #1, .T. ) ;
#162 = DIRECTION ( 'NONE',  ( -1.000000000000000000, -3.469446951953613573E-17, 0.0000000000000000000 ) ) ;
#163 = ORGANIZATION ( 'UNSPECIFIED', 'UNSPECIFIED', '' ) ;
#164 = LINE ( 'NONE', #56, #119 ) ;
#165 = DIRECTION ( 'NONE',  ( 1.000000000000000000, 3.469446951953614189E-17, -0.0000000000000000000 ) ) ;
#166 = APPROVAL ( #55, 'UNSPECIFIED' ) ;
#167 = LINE ( 'NONE', #15, #113 ) ;
#168 = DESIGN_CONTEXT ( 'detailed design', #144, 'design' ) ;
#169 = LINE ( 'NONE', #237, #75 ) ;
#170 = PERSON_AND_ORGANIZATION ( #197, #163 ) ;
#171 = ORIENTED_EDGE ( 'NONE', *, *, #54, .T. ) ;
#172 = EDGE_CURVE ( 'NONE', #61, #154, #195, .T. ) ;
#173 = ORIENTED_EDGE ( 'NONE', *, *, #44, .F. ) ;
#174 = LOCAL_TIME ( 11, 32, 22.00000000000000000, #49 ) ;
#175 = AXIS2_PLACEMENT_3D ( 'NONE', #117, #14, #210 ) ;
#176 = CARTESIAN_POINT ( 'NONE',  ( 25.00000000000000000, -12.49999999999999822, 3.000000000000000000 ) ) ;
#177 = FACE_OUTER_BOUND ( 'NONE', #192, .T. ) ;
#178 = DIRECTION ( 'NONE',  ( 0.0000000000000000000, -0.0000000000000000000, 1.000000000000000000 ) ) ;
#179 = ADVANCED_BREP_SHAPE_REPRESENTATION ( 'Web Model 15741_15741', ( #48, #147 ), #139 ) ;
#180 = FACE_OUTER_BOUND ( 'NONE', #123, .T. ) ;
#181 = APPLICATION_PROTOCOL_DEFINITION ( 'international standard', 'config_control_design', 1994, #144 ) ;
#182 = CC_DESIGN_PERSON_AND_ORGANIZATION_ASSIGNMENT ( #52, #91, ( #115 ) ) ;
#183 = APPROVAL_STATUS ( 'not_yet_approved' ) ;
#184 = EDGE_CURVE ( 'NONE', #33, #4, #169, .T. ) ;
#185 = LINE ( 'NONE', #148, #43 ) ;
#186 = APPROVAL_ROLE ( '' ) ;
#187 = PERSON_AND_ORGANIZATION ( #197, #163 ) ;
#188 = CARTESIAN_POINT ( 'NONE',  ( 24.99999999999999645, 12.50000000000000533, 3.000000000000000000 ) ) ;
#189 = ADVANCED_FACE ( 'NONE', ( #41 ), #47, .F. ) ;
#190 = DATE_AND_TIME ( #127, #174 ) ;
#191 = CARTESIAN_POINT ( 'NONE',  ( -25.00000000000000000, 12.50000000000000000, -3.000000000000000000 ) ) ;
#192 = EDGE_LOOP ( 'NONE', ( #171, #58, #202, #133 ) ) ;
#193 = APPROVAL ( #94, 'UNSPECIFIED' ) ;
#194 = CARTESIAN_POINT ( 'NONE',  ( 24.99999999999999645, 12.50000000000000533, 3.000000000000000000 ) ) ;
#195 = LINE ( 'NONE', #217, #121 ) ;
#196 = PERSON_AND_ORGANIZATION ( #197, #163 ) ;
#197 = PERSON ( 'UNSPECIFIED', 'UNSPECIFIED', 'UNSPECIFIED', ('UNSPECIFIED'), ('UNSPECIFIED'), ('UNSPECIFIED') ) ;
#198 = CC_DESIGN_APPROVAL ( #193, ( #68 ) ) ;
#199 = CALENDAR_DATE ( 2020, 19, 10 ) ;
#200 = ORIENTED_EDGE ( 'NONE', *, *, #161, .F. ) ;
#201 =( NAMED_UNIT ( * ) PLANE_ANGLE_UNIT ( ) SI_UNIT ( $, .RADIAN. ) );
#202 = ORIENTED_EDGE ( 'NONE', *, *, #152, .F. ) ;
#203 = CC_DESIGN_APPROVAL ( #29, ( #16 ) ) ;
#204 = DIRECTION ( 'NONE',  ( 1.000000000000000000, 0.0000000000000000000, 0.0000000000000000000 ) ) ;
#205 = AXIS2_PLACEMENT_3D ( 'NONE', #176, #10, #162 ) ;
#206 = DIRECTION ( 'NONE',  ( -0.0000000000000000000, -1.000000000000000000, -0.0000000000000000000 ) ) ;
#207 = PERSON_AND_ORGANIZATION ( #197, #163 ) ;
#208 = ORIENTED_EDGE ( 'NONE', *, *, #184, .F. ) ;
#209 = CARTESIAN_POINT ( 'NONE',  ( -25.00000000000000000, -12.50000000000000000, -3.000000000000000000 ) ) ;
#210 = DIRECTION ( 'NONE',  ( 1.387778780781445429E-16, -1.000000000000000000, 0.0000000000000000000 ) ) ;
#211 = FACE_OUTER_BOUND ( 'NONE', #224, .T. ) ;
#212 = CARTESIAN_POINT ( 'NONE',  ( -25.00000000000000000, -12.50000000000000000, 3.000000000000000000 ) ) ;
#213 = CC_DESIGN_DATE_AND_TIME_ASSIGNMENT ( #80, #159, ( #227 ) ) ;
#214 = DIRECTION ( 'NONE',  ( 0.0000000000000000000, -0.0000000000000000000, 1.000000000000000000 ) ) ;
#215 = ADVANCED_FACE ( 'NONE', ( #143 ), #142, .F. ) ;
#216 = ORIENTED_EDGE ( 'NONE', *, *, #36, .T. ) ;
#217 = CARTESIAN_POINT ( 'NONE',  ( -25.00000000000000000, 12.50000000000000000, 3.000000000000000000 ) ) ;
#218 = DIRECTION ( 'NONE',  ( -1.000000000000000000, -1.040834085586084257E-16, 0.0000000000000000000 ) ) ;
#219 = DATE_AND_TIME ( #135, #93 ) ;
#220 = SHAPE_DEFINITION_REPRESENTATION ( #130, #179 ) ;
#221 = PERSON_AND_ORGANIZATION ( #197, #163 ) ;
#222 = LINE ( 'NONE', #131, #226 ) ;
#223 = PERSON_AND_ORGANIZATION_ROLE ( 'creator' ) ;
#224 = EDGE_LOOP ( 'NONE', ( #23, #12, #233, #173 ) ) ;
#225 = MECHANICAL_CONTEXT ( 'NONE', #73, 'mechanical' ) ;
#226 = VECTOR ( 'NONE', #78, 1000.000000000000000 ) ;
#227 = SECURITY_CLASSIFICATION ( '', '', #65 ) ;
#228 = COORDINATED_UNIVERSAL_TIME_OFFSET ( 5, 0, .BEHIND. ) ;
#229 = APPROVAL_ROLE ( '' ) ;
#230 = CC_DESIGN_SECURITY_CLASSIFICATION ( #227, ( #16 ) ) ;
#231 = CARTESIAN_POINT ( 'NONE',  ( 25.00000000000000000, -12.49999999999999822, 3.000000000000000000 ) ) ;
#232 = DIRECTION ( 'NONE',  ( 0.0000000000000000000, 0.0000000000000000000, -1.000000000000000000 ) ) ;
#233 = ORIENTED_EDGE ( 'NONE', *, *, #54, .F. ) ;
#234 = ADVANCED_FACE ( 'NONE', ( #180 ), #7, .T. ) ;
#235 = CALENDAR_DATE ( 2020, 19, 10 ) ;
#236 = EDGE_LOOP ( 'NONE', ( #71, #18, #51, #66 ) ) ;
#237 = CARTESIAN_POINT ( 'NONE',  ( 25.00000000000000000, -12.49999999999999822, 3.000000000000000000 ) ) ;
ENDSEC;
END-ISO-10303-21;
