ISO-10303-21;
HEADER;
FILE_DESCRIPTION (( 'STEP AP203' ),
    '1' );
FILE_NAME ('step_32702.step',
    '2014-06-05T19:28:30',
    ( '' ),
    ( '' ),
    'SwSTEP 2.0',
    'SolidWorks 2014',
    '' );
FILE_SCHEMA (( 'CONFIG_CONTROL_DESIGN' ));
ENDSEC;

DATA;
#1 = DIRECTION ( 'NONE',  ( 1.000000000000000000, 5.540619775615005500E-017, -0.0000000000000000000 ) ) ;
#2 = EDGE_LOOP ( 'NONE', ( #262, #190, #263, #7 ) ) ;
#3 = CARTESIAN_POINT ( 'NONE',  ( 35.00000000000000000, 35.00000000000000000, 35.00000000000000000 ) ) ;
#4 = LINE ( 'NONE', #20, #188 ) ;
#5 = DIRECTION ( 'NONE',  ( -0.0000000000000000000, 1.000000000000000000, -0.0000000000000000000 ) ) ;
#6 = CARTESIAN_POINT ( 'NONE',  ( 0.0000000000000000000, 0.0000000000000000000, 0.0000000000000000000 ) ) ;
#7 = ORIENTED_EDGE ( 'NONE', *, *, #246, .T. ) ;
#8 = CARTESIAN_POINT ( 'NONE',  ( 0.0000000000000000000, 0.0000000000000000000, 35.00000000000000000 ) ) ;
#9 = DIRECTION ( 'NONE',  ( 0.0000000000000000000, 0.0000000000000000000, -1.000000000000000000 ) ) ;
#10 = ORIENTED_EDGE ( 'NONE', *, *, #270, .T. ) ;
#11 = DIRECTION ( 'NONE',  ( -1.000000000000000000, 0.0000000000000000000, 0.0000000000000000000 ) ) ;
#12 = PERSON_AND_ORGANIZATION ( #105, #140 ) ;
#13 = ADVANCED_FACE ( 'NONE', ( #206 ), #155, .F. ) ;
#14 = APPROVAL ( #88, 'UNSPECIFIED' ) ;
#15 = DIRECTION ( 'NONE',  ( -0.0000000000000000000, -1.000000000000000000, -0.0000000000000000000 ) ) ;
#16 = LINE ( 'NONE', #136, #241 ) ;
#17 = DIRECTION ( 'NONE',  ( -1.000000000000000000, -0.0000000000000000000, -0.0000000000000000000 ) ) ;
#18 = DIRECTION ( 'NONE',  ( -0.0000000000000000000, -0.0000000000000000000, -1.000000000000000000 ) ) ;
#19 = ORIENTED_EDGE ( 'NONE', *, *, #33, .F. ) ;
#20 = CARTESIAN_POINT ( 'NONE',  ( 0.0000000000000000000, 35.00000000000000000, 0.0000000000000000000 ) ) ;
#21 = FACE_OUTER_BOUND ( 'NONE', #219, .T. ) ;
#22 =( NAMED_UNIT ( * ) SI_UNIT ( $, .STERADIAN. ) SOLID_ANGLE_UNIT ( ) );
#23 = VECTOR ( 'NONE', #1, 1000.000000000000000 ) ;
#24 = CARTESIAN_POINT ( 'NONE',  ( 0.0000000000000000000, 0.0000000000000000000, 35.00000000000000000 ) ) ;
#25 = CARTESIAN_POINT ( 'NONE',  ( 35.00000000000000000, 35.00000000000000000, 35.00000000000000000 ) ) ;
#26 = CARTESIAN_POINT ( 'NONE',  ( 35.00000000000000000, 35.00000000000000000, 0.0000000000000000000 ) ) ;
#27 = VECTOR ( 'NONE', #195, 1000.000000000000000 ) ;
#28 = ORIENTED_EDGE ( 'NONE', *, *, #249, .F. ) ;
#29 = DIRECTION ( 'NONE',  ( -0.0000000000000000000, 1.000000000000000000, -0.0000000000000000000 ) ) ;
#30 = PLANE ( 'NONE',  #192 ) ;
#31 = CC_DESIGN_DATE_AND_TIME_ASSIGNMENT ( #212, #240, ( #43 ) ) ;
#32 = DIRECTION ( 'NONE',  ( -0.7071067811865475700, 0.7071067811865475700, 0.0000000000000000000 ) ) ;
#33 = EDGE_CURVE ( 'NONE', #185, #201, #203, .T. ) ;
#34 = DATE_AND_TIME ( #61, #223 ) ;
#35 = CARTESIAN_POINT ( 'NONE',  ( 0.0000000000000000000, 35.00000000000000000, 35.00000000000000000 ) ) ;
#36 = CC_DESIGN_PERSON_AND_ORGANIZATION_ASSIGNMENT ( #221, #291, ( #43 ) ) ;
#37 = ORIENTED_EDGE ( 'NONE', *, *, #150, .T. ) ;
#38 = CARTESIAN_POINT ( 'NONE',  ( 0.0000000000000000000, 35.00000000000000000, 35.00000000000000000 ) ) ;
#39 = DIRECTION ( 'NONE',  ( 0.0000000000000000000, -1.000000000000000000, 0.0000000000000000000 ) ) ;
#40 = LINE ( 'NONE', #191, #76 ) ;
#41 = DIRECTION ( 'NONE',  ( 0.0000000000000000000, -0.0000000000000000000, -1.000000000000000000 ) ) ;
#42 = APPROVAL_DATE_TIME ( #115, #14 ) ;
#43 = SECURITY_CLASSIFICATION ( '', '', #288 ) ;
#44 = CARTESIAN_POINT ( 'NONE',  ( 0.0000000000000000000, 0.0000000000000000000, 0.0000000000000000000 ) ) ;
#45 = ORIENTED_EDGE ( 'NONE', *, *, #252, .T. ) ;
#46 = ORIENTED_EDGE ( 'NONE', *, *, #174, .T. ) ;
#47 = CARTESIAN_POINT ( 'NONE',  ( 35.00000000000000000, 1.939216921465252100E-015, 35.00000000000000000 ) ) ;
#48 = ADVANCED_FACE ( 'NONE', ( #213 ), #153, .F. ) ;
#49 = CALENDAR_DATE ( 2014, 5, 6 ) ;
#50 = ORIENTED_EDGE ( 'NONE', *, *, #174, .F. ) ;
#51 = COORDINATED_UNIVERSAL_TIME_OFFSET ( 7, 0, .BEHIND. ) ;
#52 = ORIENTED_EDGE ( 'NONE', *, *, #246, .F. ) ;
#53 = CC_DESIGN_PERSON_AND_ORGANIZATION_ASSIGNMENT ( #129, #284, ( #70 ) ) ;
#54 = VECTOR ( 'NONE', #253, 1000.000000000000000 ) ;
#55 = PERSON_AND_ORGANIZATION ( #105, #140 ) ;
#56 = VECTOR ( 'NONE', #126, 1000.000000000000000 ) ;
#57 = APPROVAL_PERSON_ORGANIZATION ( #12, #68, #282 ) ;
#58 = CARTESIAN_POINT ( 'NONE',  ( 35.00000000000000000, 35.00000000000000000, 35.00000000000000000 ) ) ;
#59 = DIRECTION ( 'NONE',  ( -0.0000000000000000000, -0.0000000000000000000, -1.000000000000000000 ) ) ;
#60 = ADVANCED_BREP_SHAPE_REPRESENTATION ( 'step_32702', ( #181, #231, #156 ), #194 ) ;
#61 = CALENDAR_DATE ( 2014, 5, 6 ) ;
#62 = CC_DESIGN_PERSON_AND_ORGANIZATION_ASSIGNMENT ( #151, #283, ( #70 ) ) ;
#63 = ORIENTED_EDGE ( 'NONE', *, *, #259, .T. ) ;
#64 = CC_DESIGN_APPROVAL ( #68, ( #70 ) ) ;
#65 = APPROVAL_STATUS ( 'not_yet_approved' ) ;
#66 = PRODUCT_RELATED_PRODUCT_CATEGORY ( 'detail', '', ( #133 ) ) ;
#67 = EDGE_LOOP ( 'NONE', ( #320, #127, #149, #46 ) ) ;
#68 = APPROVAL ( #278, 'UNSPECIFIED' ) ;
#69 = EDGE_CURVE ( 'NONE', #159, #173, #301, .T. ) ;
#70 = PRODUCT_DEFINITION_FORMATION_WITH_SPECIFIED_SOURCE ( 'ANY', '', #133, .NOT_KNOWN. ) ;
#71 = EDGE_LOOP ( 'NONE', ( #10, #52, #28, #311 ) ) ;
#72 = EDGE_CURVE ( 'NONE', #159, #313, #160, .T. ) ;
#73 = VERTEX_POINT ( 'NONE', #38 ) ;
#74 = VECTOR ( 'NONE', #254, 1000.000000000000000 ) ;
#75 = CC_DESIGN_DATE_AND_TIME_ASSIGNMENT ( #242, #277, ( #124 ) ) ;
#76 = VECTOR ( 'NONE', #226, 1000.000000000000000 ) ;
#77 = DIRECTION ( 'NONE',  ( -0.7071067811865474600, -0.7071067811865474600, -0.0000000000000000000 ) ) ;
#78 = VERTEX_POINT ( 'NONE', #222 ) ;
#79 = APPROVAL_ROLE ( '' ) ;
#80 = PLANE ( 'NONE',  #146 ) ;
#81 = ORIENTED_EDGE ( 'NONE', *, *, #72, .T. ) ;
#82 = DIRECTION ( 'NONE',  ( 1.000000000000000000, 0.0000000000000000000, 0.0000000000000000000 ) ) ;
#83 = EDGE_CURVE ( 'NONE', #302, #285, #147, .T. ) ;
#84 = FACE_OUTER_BOUND ( 'NONE', #71, .T. ) ;
#85 = CARTESIAN_POINT ( 'NONE',  ( 0.0000000000000000000, 0.0000000000000000000, 0.0000000000000000000 ) ) ;
#86 = CC_DESIGN_PERSON_AND_ORGANIZATION_ASSIGNMENT ( #55, #276, ( #124 ) ) ;
#87 = VECTOR ( 'NONE', #170, 1000.000000000000100 ) ;
#88 = APPROVAL_STATUS ( 'not_yet_approved' ) ;
#89 = VECTOR ( 'NONE', #5, 1000.000000000000000 ) ;
#90 = FACE_OUTER_BOUND ( 'NONE', #67, .T. ) ;
#91 = EDGE_CURVE ( 'NONE', #306, #78, #16, .T. ) ;
#92 = ORIENTED_EDGE ( 'NONE', *, *, #232, .T. ) ;
#93 = ORIENTED_EDGE ( 'NONE', *, *, #255, .T. ) ;
#94 = VECTOR ( 'NONE', #117, 1000.000000000000100 ) ;
#95 = EDGE_CURVE ( 'NONE', #100, #313, #292, .T. ) ;
#96 = CARTESIAN_POINT ( 'NONE',  ( 0.0000000000000000000, 0.0000000000000000000, 35.00000000000000000 ) ) ;
#97 = VECTOR ( 'NONE', #204, 1000.000000000000000 ) ;
#98 = CC_DESIGN_APPROVAL ( #111, ( #124 ) ) ;
#99 = DIRECTION ( 'NONE',  ( 0.0000000000000000000, 0.0000000000000000000, -1.000000000000000000 ) ) ;
#100 = VERTEX_POINT ( 'NONE', #199 ) ;
#101 = ORIENTED_EDGE ( 'NONE', *, *, #252, .F. ) ;
#102 = CARTESIAN_POINT ( 'NONE',  ( 0.0000000000000000000, 0.0000000000000000000, 35.00000000000000000 ) ) ;
#103 = DIRECTION ( 'NONE',  ( -1.000000000000000000, 0.0000000000000000000, 0.0000000000000000000 ) ) ;
#104 = ADVANCED_FACE ( 'NONE', ( #217 ), #80, .F. ) ;
#105 = PERSON ( 'UNSPECIFIED', 'UNSPECIFIED', 'UNSPECIFIED', ('UNSPECIFIED'), ('UNSPECIFIED'), ('UNSPECIFIED') ) ;
#106 = FACE_OUTER_BOUND ( 'NONE', #169, .T. ) ;
#107 = LINE ( 'NONE', #268, #97 ) ;
#108 = FACE_OUTER_BOUND ( 'NONE', #184, .T. ) ;
#109 = DESIGN_CONTEXT ( 'detailed design', #265, 'design' ) ;
#110 = CARTESIAN_POINT ( 'NONE',  ( 0.0000000000000000000, 35.00000000000000000, 35.00000000000000000 ) ) ;
#111 = APPROVAL ( #65, 'UNSPECIFIED' ) ;
#112 = PLANE ( 'NONE',  #197 ) ;
#113 = CARTESIAN_POINT ( 'NONE',  ( 0.0000000000000000000, 0.0000000000000000000, 35.00000000000000000 ) ) ;
#114 = APPROVAL_DATE_TIME ( #34, #68 ) ;
#115 = DATE_AND_TIME ( #141, #239 ) ;
#116 = ORIENTED_EDGE ( 'NONE', *, *, #69, .T. ) ;
#117 = DIRECTION ( 'NONE',  ( 0.7071067811865474600, 0.7071067811865474600, -0.0000000000000000000 ) ) ;
#118 = UNCERTAINTY_MEASURE_WITH_UNIT (LENGTH_MEASURE( 1.000000000000000100E-005 ), #280, 'distance_accuracy_value', 'NONE');
#119 = DIRECTION ( 'NONE',  ( 1.000000000000000000, 0.0000000000000000000, -0.0000000000000000000 ) ) ;
#120 = CALENDAR_DATE ( 2014, 5, 6 ) ;
#121 = DIRECTION ( 'NONE',  ( -0.0000000000000000000, -0.0000000000000000000, -1.000000000000000000 ) ) ;
#122 = ORIENTED_EDGE ( 'NONE', *, *, #95, .F. ) ;
#123 = DATE_AND_TIME ( #138, #157 ) ;
#124 = PRODUCT_DEFINITION ( 'UNKNOWN', '', #70, #109 ) ;
#125 = DIRECTION ( 'NONE',  ( 0.0000000000000000000, 0.0000000000000000000, 1.000000000000000000 ) ) ;
#126 = DIRECTION ( 'NONE',  ( -0.0000000000000000000, -0.0000000000000000000, -1.000000000000000000 ) ) ;
#127 = ORIENTED_EDGE ( 'NONE', *, *, #150, .F. ) ;
#128 = EDGE_LOOP ( 'NONE', ( #101, #19, #310 ) ) ;
#129 = PERSON_AND_ORGANIZATION ( #105, #140 ) ;
#130 = AXIS2_PLACEMENT_3D ( 'NONE', #85, #258, #119 ) ;
#131 = ADVANCED_FACE ( 'NONE', ( #172 ), #164, .T. ) ;
#132 = PERSON_AND_ORGANIZATION ( #105, #140 ) ;
#133 = PRODUCT ( 'step_32702', 'step_32702', '', ( #256 ) ) ;
#134 = DIRECTION ( 'NONE',  ( -1.000000000000000000, 0.0000000000000000000, 0.0000000000000000000 ) ) ;
#135 = LOCAL_TIME ( 12, 28, 30.00000000000000000, #312 ) ;
#136 = CARTESIAN_POINT ( 'NONE',  ( 35.00000000000000000, 1.939216921465252100E-015, 35.00000000000000000 ) ) ;
#137 = LINE ( 'NONE', #3, #89 ) ;
#138 = CALENDAR_DATE ( 2014, 5, 6 ) ;
#139 = COORDINATED_UNIVERSAL_TIME_OFFSET ( 7, 0, .BEHIND. ) ;
#140 = ORGANIZATION ( 'UNSPECIFIED', 'UNSPECIFIED', '' ) ;
#141 = CALENDAR_DATE ( 2014, 5, 6 ) ;
#142 = LINE ( 'NONE', #251, #54 ) ;
#143 = PERSON_AND_ORGANIZATION ( #105, #140 ) ;
#144 = CARTESIAN_POINT ( 'NONE',  ( 0.0000000000000000000, 0.0000000000000000000, 0.0000000000000000000 ) ) ;
#145 = CC_DESIGN_PERSON_AND_ORGANIZATION_ASSIGNMENT ( #132, #317, ( #133 ) ) ;
#146 = AXIS2_PLACEMENT_3D ( 'NONE', #314, #32, #196 ) ;
#147 = LINE ( 'NONE', #176, #257 ) ;
#148 = CARTESIAN_POINT ( 'NONE',  ( 35.00000000000000000, 1.939216921465252100E-015, 35.00000000000000000 ) ) ;
#149 = ORIENTED_EDGE ( 'NONE', *, *, #83, .F. ) ;
#150 = EDGE_CURVE ( 'NONE', #285, #201, #309, .T. ) ;
#151 = PERSON_AND_ORGANIZATION ( #105, #140 ) ;
#152 = CC_DESIGN_APPROVAL ( #14, ( #43 ) ) ;
#153 = PLANE ( 'NONE',  #130 ) ;
#154 = CARTESIAN_POINT ( 'NONE',  ( 35.00000000000000000, 35.00000000000000000, 35.00000000000000000 ) ) ;
#155 = PLANE ( 'NONE',  #318 ) ;
#156 = AXIS2_PLACEMENT_3D ( 'NONE', #44, #297, #247 ) ;
#157 = LOCAL_TIME ( 12, 28, 30.00000000000000000, #51 ) ;
#158 = ADVANCED_FACE ( 'NONE', ( #108 ), #243, .F. ) ;
#159 = VERTEX_POINT ( 'NONE', #113 ) ;
#160 = LINE ( 'NONE', #274, #27 ) ;
#161 = COORDINATED_UNIVERSAL_TIME_OFFSET ( 7, 0, .BEHIND. ) ;
#162 = ORIENTED_EDGE ( 'NONE', *, *, #91, .F. ) ;
#163 = APPROVAL_PERSON_ORGANIZATION ( #143, #14, #79 ) ;
#164 = PLANE ( 'NONE',  #208 ) ;
#165 = CARTESIAN_POINT ( 'NONE',  ( 35.00000000000000000, 35.00000000000000000, 35.00000000000000000 ) ) ;
#166 = PLANE ( 'NONE',  #261 ) ;
#167 = CARTESIAN_POINT ( 'NONE',  ( 0.0000000000000000000, 0.0000000000000000000, 0.0000000000000000000 ) ) ;
#168 = LOCAL_TIME ( 12, 28, 30.00000000000000000, #161 ) ;
#169 = EDGE_LOOP ( 'NONE', ( #179, #122, #228 ) ) ;
#170 = DIRECTION ( 'NONE',  ( 0.7071067811865474600, 0.7071067811865474600, -0.0000000000000000000 ) ) ;
#171 = EDGE_LOOP ( 'NONE', ( #319, #229, #200, #81 ) ) ;
#172 = FACE_OUTER_BOUND ( 'NONE', #264, .T. ) ;
#173 = VERTEX_POINT ( 'NONE', #202 ) ;
#174 = EDGE_CURVE ( 'NONE', #302, #185, #266, .T. ) ;
#175 = CARTESIAN_POINT ( 'NONE',  ( 35.00000000000000000, 35.00000000000000000, 35.00000000000000000 ) ) ;
#176 = CARTESIAN_POINT ( 'NONE',  ( 0.0000000000000000000, 0.0000000000000000000, 35.00000000000000000 ) ) ;
#177 = DIRECTION ( 'NONE',  ( 0.7071067811865474600, 0.7071067811865474600, 0.0000000000000000000 ) ) ;
#178 = ORIENTED_EDGE ( 'NONE', *, *, #249, .T. ) ;
#179 = ORIENTED_EDGE ( 'NONE', *, *, #250, .F. ) ;
#180 = APPLICATION_CONTEXT ( 'configuration controlled 3d designs of mechanical parts and assemblies' ) ;
#181 = MANIFOLD_SOLID_BREP ( 'Boss-Extrude1', #233 ) ;
#182 = DIRECTION ( 'NONE',  ( 1.000000000000000000, 0.0000000000000000000, -0.0000000000000000000 ) ) ;
#183 = ADVANCED_FACE ( 'NONE', ( #90 ), #166, .F. ) ;
#184 = EDGE_LOOP ( 'NONE', ( #296, #50, #294, #193 ) ) ;
#185 = VERTEX_POINT ( 'NONE', #214 ) ;
#186 = CARTESIAN_POINT ( 'NONE',  ( 0.0000000000000000000, 0.0000000000000000000, 0.0000000000000000000 ) ) ;
#187 = ORIENTED_EDGE ( 'NONE', *, *, #83, .T. ) ;
#188 = VECTOR ( 'NONE', #17, 1000.000000000000000 ) ;
#189 = CLOSED_SHELL ( 'NONE', ( #248, #158, #183, #131, #48 ) ) ;
#190 = ORIENTED_EDGE ( 'NONE', *, *, #72, .F. ) ;
#191 = CARTESIAN_POINT ( 'NONE',  ( 0.0000000000000000000, 0.0000000000000000000, 35.00000000000000000 ) ) ;
#192 = AXIS2_PLACEMENT_3D ( 'NONE', #35, #39, #41 ) ;
#193 = ORIENTED_EDGE ( 'NONE', *, *, #91, .T. ) ;
#194 =( GEOMETRIC_REPRESENTATION_CONTEXT ( 3 ) GLOBAL_UNCERTAINTY_ASSIGNED_CONTEXT ( ( #118 ) ) GLOBAL_UNIT_ASSIGNED_CONTEXT ( ( #280, #293, #22 ) ) REPRESENTATION_CONTEXT ( 'NONE', 'WORKASPACE' ) );
#195 = DIRECTION ( 'NONE',  ( -0.0000000000000000000, -0.0000000000000000000, -1.000000000000000000 ) ) ;
#196 = DIRECTION ( 'NONE',  ( -0.7071067811865474600, -0.7071067811865474600, 0.0000000000000000000 ) ) ;
#197 = AXIS2_PLACEMENT_3D ( 'NONE', #8, #9, #11 ) ;
#198 = PLANE ( 'NONE',  #236 ) ;
#199 = CARTESIAN_POINT ( 'NONE',  ( 0.0000000000000000000, 35.00000000000000000, 0.0000000000000000000 ) ) ;
#200 = ORIENTED_EDGE ( 'NONE', *, *, #69, .F. ) ;
#201 = VERTEX_POINT ( 'NONE', #167 ) ;
#202 = CARTESIAN_POINT ( 'NONE',  ( 35.00000000000000000, 35.00000000000000000, 35.00000000000000000 ) ) ;
#203 = LINE ( 'NONE', #186, #286 ) ;
#204 = DIRECTION ( 'NONE',  ( 1.000000000000000000, 5.540619775615005500E-017, -0.0000000000000000000 ) ) ;
#205 = APPROVAL_DATE_TIME ( #123, #111 ) ;
#206 = FACE_OUTER_BOUND ( 'NONE', #2, .T. ) ;
#207 = ORIENTED_EDGE ( 'NONE', *, *, #255, .F. ) ;
#208 = AXIS2_PLACEMENT_3D ( 'NONE', #307, #234, #182 ) ;
#209 = COORDINATED_UNIVERSAL_TIME_OFFSET ( 7, 0, .BEHIND. ) ;
#210 = LINE ( 'NONE', #110, #74 ) ;
#211 = CARTESIAN_POINT ( 'NONE',  ( 35.00000000000000000, 35.00000000000000000, 0.0000000000000000000 ) ) ;
#212 = DATE_AND_TIME ( #120, #135 ) ;
#213 = FACE_OUTER_BOUND ( 'NONE', #128, .T. ) ;
#214 = CARTESIAN_POINT ( 'NONE',  ( 35.00000000000000000, 35.00000000000000000, 0.0000000000000000000 ) ) ;
#215 = VECTOR ( 'NONE', #121, 1000.000000000000000 ) ;
#216 = VECTOR ( 'NONE', #59, 1000.000000000000000 ) ;
#217 = FACE_OUTER_BOUND ( 'NONE', #171, .T. ) ;
#218 = VERTEX_POINT ( 'NONE', #211 ) ;
#219 = EDGE_LOOP ( 'NONE', ( #45, #162, #207, #37 ) ) ;
#220 = AXIS2_PLACEMENT_3D ( 'NONE', #148, #224, #321 ) ;
#221 = PERSON_AND_ORGANIZATION ( #105, #140 ) ;
#222 = CARTESIAN_POINT ( 'NONE',  ( 35.00000000000000000, 1.939216921465252100E-015, 0.0000000000000000000 ) ) ;
#223 = LOCAL_TIME ( 12, 28, 30.00000000000000000, #209 ) ;
#224 = DIRECTION ( 'NONE',  ( -5.540619775615005500E-017, 1.000000000000000000, 0.0000000000000000000 ) ) ;
#225 = ADVANCED_FACE ( 'NONE', ( #106 ), #198, .T. ) ;
#226 = DIRECTION ( 'NONE',  ( -0.0000000000000000000, -1.000000000000000000, -0.0000000000000000000 ) ) ;
#227 = VECTOR ( 'NONE', #15, 1000.000000000000000 ) ;
#228 = ORIENTED_EDGE ( 'NONE', *, *, #270, .F. ) ;
#229 = ORIENTED_EDGE ( 'NONE', *, *, #304, .F. ) ;
#230 = LINE ( 'NONE', #58, #216 ) ;
#231 = MANIFOLD_SOLID_BREP ( 'Boss-Extrude2', #189 ) ;
#232 = EDGE_CURVE ( 'NONE', #73, #159, #40, .T. ) ;
#233 = CLOSED_SHELL ( 'NONE', ( #104, #303, #13, #260, #225 ) ) ;
#234 = DIRECTION ( 'NONE',  ( 0.0000000000000000000, 0.0000000000000000000, 1.000000000000000000 ) ) ;
#235 = CARTESIAN_POINT ( 'NONE',  ( 0.0000000000000000000, 0.0000000000000000000, 35.00000000000000000 ) ) ;
#236 = AXIS2_PLACEMENT_3D ( 'NONE', #281, #99, #103 ) ;
#237 = LINE ( 'NONE', #245, #23 ) ;
#238 = VECTOR ( 'NONE', #29, 1000.000000000000000 ) ;
#239 = LOCAL_TIME ( 12, 28, 30.00000000000000000, #139 ) ;
#240 = DATE_TIME_ROLE ( 'classification_date' ) ;
#241 = VECTOR ( 'NONE', #18, 1000.000000000000000 ) ;
#242 = DATE_AND_TIME ( #49, #168 ) ;
#243 = PLANE ( 'NONE',  #279 ) ;
#244 = LINE ( 'NONE', #305, #94 ) ;
#245 = CARTESIAN_POINT ( 'NONE',  ( 35.00000000000000000, 1.939216921465252100E-015, 35.00000000000000000 ) ) ;
#246 = EDGE_CURVE ( 'NONE', #73, #100, #142, .T. ) ;
#247 = DIRECTION ( 'NONE',  ( 1.000000000000000000, 0.0000000000000000000, 0.0000000000000000000 ) ) ;
#248 = ADVANCED_FACE ( 'NONE', ( #21 ), #271, .F. ) ;
#249 = EDGE_CURVE ( 'NONE', #173, #73, #210, .T. ) ;
#250 = EDGE_CURVE ( 'NONE', #313, #218, #244, .T. ) ;
#251 = CARTESIAN_POINT ( 'NONE',  ( 0.0000000000000000000, 35.00000000000000000, 35.00000000000000000 ) ) ;
#252 = EDGE_CURVE ( 'NONE', #201, #78, #107, .T. ) ;
#253 = DIRECTION ( 'NONE',  ( -0.0000000000000000000, -0.0000000000000000000, -1.000000000000000000 ) ) ;
#254 = DIRECTION ( 'NONE',  ( -1.000000000000000000, -0.0000000000000000000, -0.0000000000000000000 ) ) ;
#255 = EDGE_CURVE ( 'NONE', #285, #306, #237, .T. ) ;
#256 = MECHANICAL_CONTEXT ( 'NONE', #180, 'mechanical' ) ;
#257 = VECTOR ( 'NONE', #269, 1000.000000000000100 ) ;
#258 = DIRECTION ( 'NONE',  ( 0.0000000000000000000, 0.0000000000000000000, 1.000000000000000000 ) ) ;
#259 = EDGE_CURVE ( 'NONE', #306, #302, #137, .T. ) ;
#260 = ADVANCED_FACE ( 'NONE', ( #298 ), #112, .F. ) ;
#261 = AXIS2_PLACEMENT_3D ( 'NONE', #235, #300, #177 ) ;
#262 = ORIENTED_EDGE ( 'NONE', *, *, #95, .T. ) ;
#263 = ORIENTED_EDGE ( 'NONE', *, *, #232, .F. ) ;
#264 = EDGE_LOOP ( 'NONE', ( #93, #63, #187 ) ) ;
#265 = APPLICATION_CONTEXT ( 'configuration controlled 3d designs of mechanical parts and assemblies' ) ;
#266 = LINE ( 'NONE', #175, #56 ) ;
#267 = APPROVAL_ROLE ( '' ) ;
#268 = CARTESIAN_POINT ( 'NONE',  ( 35.00000000000000000, 1.939216921465252100E-015, 0.0000000000000000000 ) ) ;
#269 = DIRECTION ( 'NONE',  ( -0.7071067811865474600, -0.7071067811865474600, -0.0000000000000000000 ) ) ;
#270 = EDGE_CURVE ( 'NONE', #218, #100, #4, .T. ) ;
#271 = PLANE ( 'NONE',  #220 ) ;
#272 = PRODUCT_DEFINITION_SHAPE ( 'NONE', 'NONE',  #124 ) ;
#273 = CC_DESIGN_SECURITY_CLASSIFICATION ( #43, ( #70 ) ) ;
#274 = CARTESIAN_POINT ( 'NONE',  ( 0.0000000000000000000, 0.0000000000000000000, 35.00000000000000000 ) ) ;
#275 = DIRECTION ( 'NONE',  ( 0.0000000000000000000, 0.0000000000000000000, -1.000000000000000000 ) ) ;
#276 = PERSON_AND_ORGANIZATION_ROLE ( 'creator' ) ;
#277 = DATE_TIME_ROLE ( 'creation_date' ) ;
#278 = APPROVAL_STATUS ( 'not_yet_approved' ) ;
#279 = AXIS2_PLACEMENT_3D ( 'NONE', #154, #134, #125 ) ;
#280 =( LENGTH_UNIT ( ) NAMED_UNIT ( * ) SI_UNIT ( .MILLI., .METRE. ) );
#281 = CARTESIAN_POINT ( 'NONE',  ( 0.0000000000000000000, 0.0000000000000000000, 0.0000000000000000000 ) ) ;
#282 = APPROVAL_ROLE ( '' ) ;
#283 = PERSON_AND_ORGANIZATION_ROLE ( 'creator' ) ;
#284 = PERSON_AND_ORGANIZATION_ROLE ( 'design_supplier' ) ;
#285 = VERTEX_POINT ( 'NONE', #24 ) ;
#286 = VECTOR ( 'NONE', #77, 1000.000000000000100 ) ;
#287 = EDGE_LOOP ( 'NONE', ( #116, #178, #92 ) ) ;
#288 = SECURITY_CLASSIFICATION_LEVEL ( 'unclassified' ) ;
#289 = LINE ( 'NONE', #26, #238 ) ;
#290 = PERSON_AND_ORGANIZATION ( #105, #140 ) ;
#291 = PERSON_AND_ORGANIZATION_ROLE ( 'classification_officer' ) ;
#292 = LINE ( 'NONE', #144, #227 ) ;
#293 =( NAMED_UNIT ( * ) PLANE_ANGLE_UNIT ( ) SI_UNIT ( $, .RADIAN. ) );
#294 = ORIENTED_EDGE ( 'NONE', *, *, #259, .F. ) ;
#295 = APPLICATION_PROTOCOL_DEFINITION ( 'international standard', 'config_control_design', 1994, #265 ) ;
#296 = ORIENTED_EDGE ( 'NONE', *, *, #299, .T. ) ;
#297 = DIRECTION ( 'NONE',  ( 0.0000000000000000000, 0.0000000000000000000, 1.000000000000000000 ) ) ;
#298 = FACE_OUTER_BOUND ( 'NONE', #287, .T. ) ;
#299 = EDGE_CURVE ( 'NONE', #78, #185, #289, .T. ) ;
#300 = DIRECTION ( 'NONE',  ( 0.7071067811865475700, -0.7071067811865475700, 0.0000000000000000000 ) ) ;
#301 = LINE ( 'NONE', #165, #87 ) ;
#302 = VERTEX_POINT ( 'NONE', #25 ) ;
#303 = ADVANCED_FACE ( 'NONE', ( #84 ), #30, .F. ) ;
#304 = EDGE_CURVE ( 'NONE', #173, #218, #230, .T. ) ;
#305 = CARTESIAN_POINT ( 'NONE',  ( 35.00000000000000000, 35.00000000000000000, 0.0000000000000000000 ) ) ;
#306 = VERTEX_POINT ( 'NONE', #47 ) ;
#307 = CARTESIAN_POINT ( 'NONE',  ( 0.0000000000000000000, 0.0000000000000000000, 35.00000000000000000 ) ) ;
#308 = SHAPE_DEFINITION_REPRESENTATION ( #272, #60 ) ;
#309 = LINE ( 'NONE', #102, #215 ) ;
#310 = ORIENTED_EDGE ( 'NONE', *, *, #299, .F. ) ;
#311 = ORIENTED_EDGE ( 'NONE', *, *, #304, .T. ) ;
#312 = COORDINATED_UNIVERSAL_TIME_OFFSET ( 7, 0, .BEHIND. ) ;
#313 = VERTEX_POINT ( 'NONE', #6 ) ;
#314 = CARTESIAN_POINT ( 'NONE',  ( 35.00000000000000000, 35.00000000000000000, 35.00000000000000000 ) ) ;
#315 = APPLICATION_PROTOCOL_DEFINITION ( 'international standard', 'config_control_design', 1994, #180 ) ;
#316 = APPROVAL_PERSON_ORGANIZATION ( #290, #111, #267 ) ;
#317 = PERSON_AND_ORGANIZATION_ROLE ( 'design_owner' ) ;
#318 = AXIS2_PLACEMENT_3D ( 'NONE', #96, #82, #275 ) ;
#319 = ORIENTED_EDGE ( 'NONE', *, *, #250, .T. ) ;
#320 = ORIENTED_EDGE ( 'NONE', *, *, #33, .T. ) ;
#321 = DIRECTION ( 'NONE',  ( -1.000000000000000000, -5.540619775615005500E-017, 0.0000000000000000000 ) ) ;
ENDSEC;
END-ISO-10303-21;
