ISO-10303-21;
HEADER;
FILE_DESCRIPTION (( 'STEP AP203' ),
    '1' );
FILE_NAME ('Web Model 84458_48069.step',
    '2017-04-03T16:39:27',
    ( '' ),
    ( '' ),
    'SwSTEP 2.0',
    'SolidWorks 2016',
    '' );
FILE_SCHEMA (( 'CONFIG_CONTROL_DESIGN' ));
ENDSEC;

DATA;
#1 =( NAMED_UNIT ( * ) PLANE_ANGLE_UNIT ( ) SI_UNIT ( $, .RADIAN. ) );
#2 = CC_DESIGN_DATE_AND_TIME_ASSIGNMENT ( #55, #108, ( #30 ) ) ;
#3 = PERSON_AND_ORGANIZATION_ROLE ( 'design_supplier' ) ;
#4 = DIRECTION ( 'NONE',  ( -1.000000000000000000, 0.0000000000000000000, 0.0000000000000000000 ) ) ;
#5 = PERSON ( 'UNSPECIFIED', 'UNSPECIFIED', 'UNSPECIFIED', ('UNSPECIFIED'), ('UNSPECIFIED'), ('UNSPECIFIED') ) ;
#6 = CARTESIAN_POINT ( 'NONE',  ( 0.0000000000000000000, 0.0000000000000000000, 0.0000000000000000000 ) ) ;
#7 = CC_DESIGN_PERSON_AND_ORGANIZATION_ASSIGNMENT ( #9, #106, ( #30 ) ) ;
#8 = APPLICATION_CONTEXT ( 'configuration controlled 3d designs of mechanical parts and assemblies' ) ;
#9 = PERSON_AND_ORGANIZATION ( #5, #76 ) ;
#10 = APPROVAL_STATUS ( 'not_yet_approved' ) ;
#11 = VERTEX_POINT ( 'NONE', #92 ) ;
#12 = ORIENTED_EDGE ( 'NONE', *, *, #13, .T. ) ;
#13 = EDGE_CURVE ( 'NONE', #38, #85, #103, .T. ) ;
#14 = APPROVAL_DATE_TIME ( #127, #28 ) ;
#15 = PLANE ( 'NONE',  #60 ) ;
#16 = LOCAL_TIME ( 12, 39, 27.00000000000000000, #67 ) ;
#17 = CC_DESIGN_APPROVAL ( #28, ( #30 ) ) ;
#18 = EDGE_LOOP ( 'NONE', ( #72, #160 ) ) ;
#19 = ORIENTED_EDGE ( 'NONE', *, *, #77, .F. ) ;
#20 = EDGE_CURVE ( 'NONE', #11, #37, #22, .T. ) ;
#21 = DIRECTION ( 'NONE',  ( 0.0000000000000000000, 0.0000000000000000000, 1.000000000000000000 ) ) ;
#22 = CIRCLE ( 'NONE', #80, 25.00000000000000000 ) ;
#23 = EDGE_CURVE ( 'NONE', #37, #11, #89, .T. ) ;
#24 = DIRECTION ( 'NONE',  ( -0.0000000000000000000, -0.0000000000000000000, -1.000000000000000000 ) ) ;
#25 = APPROVAL_PERSON_ORGANIZATION ( #171, #91, #157 ) ;
#26 = LINE ( 'NONE', #172, #74 ) ;
#27 = FACE_OUTER_BOUND ( 'NONE', #133, .T. ) ;
#28 = APPROVAL ( #170, 'UNSPECIFIED' ) ;
#29 = PERSON_AND_ORGANIZATION_ROLE ( 'classification_officer' ) ;
#30 = PRODUCT_DEFINITION ( 'UNKNOWN', '', #49, #102 ) ;
#31 = LOCAL_TIME ( 12, 39, 27.00000000000000000, #138 ) ;
#32 = CARTESIAN_POINT ( 'NONE',  ( 0.0000000000000000000, 0.0000000000000000000, 0.0000000000000000000 ) ) ;
#33 = ORIENTED_EDGE ( 'NONE', *, *, #87, .F. ) ;
#34 = EDGE_CURVE ( 'NONE', #85, #38, #109, .T. ) ;
#35 = DIRECTION ( 'NONE',  ( 0.0000000000000000000, 0.0000000000000000000, 1.000000000000000000 ) ) ;
#36 = CC_DESIGN_PERSON_AND_ORGANIZATION_ASSIGNMENT ( #104, #100, ( #168 ) ) ;
#37 = VERTEX_POINT ( 'NONE', #162 ) ;
#38 = VERTEX_POINT ( 'NONE', #50 ) ;
#39 = CARTESIAN_POINT ( 'NONE',  ( 0.0000000000000000000, 0.0000000000000000000, 5.000000000000000000 ) ) ;
#40 = AXIS2_PLACEMENT_3D ( 'NONE', #54, #58, #86 ) ;
#41 = SHAPE_DEFINITION_REPRESENTATION ( #125, #62 ) ;
#42 = DIRECTION ( 'NONE',  ( 1.000000000000000000, 0.0000000000000000000, -0.0000000000000000000 ) ) ;
#43 = DIRECTION ( 'NONE',  ( 0.0000000000000000000, 0.0000000000000000000, 1.000000000000000000 ) ) ;
#44 = APPLICATION_CONTEXT ( 'configuration controlled 3d designs of mechanical parts and assemblies' ) ;
#45 = CALENDAR_DATE ( 2017, 3, 4 ) ;
#46 = APPROVAL_DATE_TIME ( #61, #150 ) ;
#47 = DIRECTION ( 'NONE',  ( 1.000000000000000000, 0.0000000000000000000, 0.0000000000000000000 ) ) ;
#48 = CARTESIAN_POINT ( 'NONE',  ( 0.0000000000000000000, 0.0000000000000000000, 5.000000000000000000 ) ) ;
#49 = PRODUCT_DEFINITION_FORMATION_WITH_SPECIFIED_SOURCE ( 'ANY', '', #168, .NOT_KNOWN. ) ;
#50 = CARTESIAN_POINT ( 'NONE',  ( 25.00000000000000000, 3.061616997868383000E-015, 0.0000000000000000000 ) ) ;
#51 = ADVANCED_FACE ( 'NONE', ( #169 ), #173, .T. ) ;
#52 = CALENDAR_DATE ( 2017, 3, 4 ) ;
#53 = PERSON_AND_ORGANIZATION ( #5, #76 ) ;
#54 = CARTESIAN_POINT ( 'NONE',  ( 0.0000000000000000000, 0.0000000000000000000, 0.0000000000000000000 ) ) ;
#55 = DATE_AND_TIME ( #94, #149 ) ;
#56 = CARTESIAN_POINT ( 'NONE',  ( 0.0000000000000000000, 0.0000000000000000000, 5.000000000000000000 ) ) ;
#57 = DIRECTION ( 'NONE',  ( -0.0000000000000000000, -0.0000000000000000000, -1.000000000000000000 ) ) ;
#58 = DIRECTION ( 'NONE',  ( 0.0000000000000000000, 0.0000000000000000000, 1.000000000000000000 ) ) ;
#59 = COORDINATED_UNIVERSAL_TIME_OFFSET ( 5, 0, .BEHIND. ) ;
#60 = AXIS2_PLACEMENT_3D ( 'NONE', #48, #90, #42 ) ;
#61 = DATE_AND_TIME ( #45, #31 ) ;
#62 = ADVANCED_BREP_SHAPE_REPRESENTATION ( 'Web Model 84458_48069', ( #152, #40 ), #79 ) ;
#63 = DIRECTION ( 'NONE',  ( -0.0000000000000000000, -0.0000000000000000000, -1.000000000000000000 ) ) ;
#64 = PERSON_AND_ORGANIZATION_ROLE ( 'creator' ) ;
#65 = AXIS2_PLACEMENT_3D ( 'NONE', #123, #63, #4 ) ;
#66 = ADVANCED_FACE ( 'NONE', ( #124 ), #129, .F. ) ;
#67 = COORDINATED_UNIVERSAL_TIME_OFFSET ( 5, 0, .BEHIND. ) ;
#68 = CYLINDRICAL_SURFACE ( 'NONE', #65, 25.00000000000000000 ) ;
#69 = AXIS2_PLACEMENT_3D ( 'NONE', #151, #116, #118 ) ;
#70 = CALENDAR_DATE ( 2017, 3, 4 ) ;
#71 = ORIENTED_EDGE ( 'NONE', *, *, #23, .F. ) ;
#72 = ORIENTED_EDGE ( 'NONE', *, *, #34, .F. ) ;
#73 = AXIS2_PLACEMENT_3D ( 'NONE', #96, #75, #140 ) ;
#74 = VECTOR ( 'NONE', #24, 1000.000000000000000 ) ;
#75 = DIRECTION ( 'NONE',  ( 0.0000000000000000000, 0.0000000000000000000, 1.000000000000000000 ) ) ;
#76 = ORGANIZATION ( 'UNSPECIFIED', 'UNSPECIFIED', '' ) ;
#77 = EDGE_CURVE ( 'NONE', #37, #85, #26, .T. ) ;
#78 = PERSON_AND_ORGANIZATION ( #5, #76 ) ;
#79 =( GEOMETRIC_REPRESENTATION_CONTEXT ( 3 ) GLOBAL_UNCERTAINTY_ASSIGNED_CONTEXT ( ( #136 ) ) GLOBAL_UNIT_ASSIGNED_CONTEXT ( ( #131, #1, #84 ) ) REPRESENTATION_CONTEXT ( 'NONE', 'WORKASPACE' ) );
#80 = AXIS2_PLACEMENT_3D ( 'NONE', #39, #43, #47 ) ;
#81 = ORIENTED_EDGE ( 'NONE', *, *, #77, .T. ) ;
#82 = ORIENTED_EDGE ( 'NONE', *, *, #87, .T. ) ;
#83 = AXIS2_PLACEMENT_3D ( 'NONE', #32, #35, #165 ) ;
#84 =( NAMED_UNIT ( * ) SI_UNIT ( $, .STERADIAN. ) SOLID_ANGLE_UNIT ( ) );
#85 = VERTEX_POINT ( 'NONE', #156 ) ;
#86 = DIRECTION ( 'NONE',  ( 1.000000000000000000, 0.0000000000000000000, 0.0000000000000000000 ) ) ;
#87 = EDGE_CURVE ( 'NONE', #11, #38, #117, .T. ) ;
#88 = DIRECTION ( 'NONE',  ( 0.0000000000000000000, 0.0000000000000000000, 1.000000000000000000 ) ) ;
#89 = CIRCLE ( 'NONE', #135, 25.00000000000000000 ) ;
#90 = DIRECTION ( 'NONE',  ( 0.0000000000000000000, 0.0000000000000000000, 1.000000000000000000 ) ) ;
#91 = APPROVAL ( #10, 'UNSPECIFIED' ) ;
#92 = CARTESIAN_POINT ( 'NONE',  ( 25.00000000000000000, 3.061616997868383000E-015, 5.000000000000000000 ) ) ;
#93 = CARTESIAN_POINT ( 'NONE',  ( 25.00000000000000000, 3.061616997868383000E-015, 5.000000000000000000 ) ) ;
#94 = CALENDAR_DATE ( 2017, 3, 4 ) ;
#95 = VECTOR ( 'NONE', #57, 1000.000000000000000 ) ;
#96 = CARTESIAN_POINT ( 'NONE',  ( 0.0000000000000000000, 0.0000000000000000000, 0.0000000000000000000 ) ) ;
#97 = APPLICATION_PROTOCOL_DEFINITION ( 'international standard', 'config_control_design', 1994, #8 ) ;
#98 = ORIENTED_EDGE ( 'NONE', *, *, #34, .T. ) ;
#99 = SECURITY_CLASSIFICATION_LEVEL ( 'unclassified' ) ;
#100 = PERSON_AND_ORGANIZATION_ROLE ( 'design_owner' ) ;
#101 = CC_DESIGN_APPROVAL ( #91, ( #49 ) ) ;
#102 = DESIGN_CONTEXT ( 'detailed design', #8, 'design' ) ;
#103 = CIRCLE ( 'NONE', #73, 25.00000000000000000 ) ;
#104 = PERSON_AND_ORGANIZATION ( #5, #76 ) ;
#105 = COORDINATED_UNIVERSAL_TIME_OFFSET ( 5, 0, .BEHIND. ) ;
#106 = PERSON_AND_ORGANIZATION_ROLE ( 'creator' ) ;
#107 = ORIENTED_EDGE ( 'NONE', *, *, #23, .T. ) ;
#108 = DATE_TIME_ROLE ( 'creation_date' ) ;
#109 = CIRCLE ( 'NONE', #148, 25.00000000000000000 ) ;
#110 = COORDINATED_UNIVERSAL_TIME_OFFSET ( 5, 0, .BEHIND. ) ;
#111 = CC_DESIGN_PERSON_AND_ORGANIZATION_ASSIGNMENT ( #78, #64, ( #49 ) ) ;
#112 = APPLICATION_PROTOCOL_DEFINITION ( 'international standard', 'config_control_design', 1994, #44 ) ;
#113 = ADVANCED_FACE ( 'NONE', ( #27 ), #68, .T. ) ;
#114 = DIRECTION ( 'NONE',  ( 1.000000000000000000, 0.0000000000000000000, 0.0000000000000000000 ) ) ;
#115 = DATE_AND_TIME ( #52, #130 ) ;
#116 = DIRECTION ( 'NONE',  ( -0.0000000000000000000, -0.0000000000000000000, -1.000000000000000000 ) ) ;
#117 = LINE ( 'NONE', #93, #95 ) ;
#118 = DIRECTION ( 'NONE',  ( -1.000000000000000000, 0.0000000000000000000, 0.0000000000000000000 ) ) ;
#119 = ORIENTED_EDGE ( 'NONE', *, *, #20, .F. ) ;
#120 = PERSON_AND_ORGANIZATION ( #5, #76 ) ;
#121 = CC_DESIGN_PERSON_AND_ORGANIZATION_ASSIGNMENT ( #134, #3, ( #49 ) ) ;
#122 = APPROVAL_PERSON_ORGANIZATION ( #154, #28, #174 ) ;
#123 = CARTESIAN_POINT ( 'NONE',  ( 0.0000000000000000000, 0.0000000000000000000, 5.000000000000000000 ) ) ;
#124 = FACE_OUTER_BOUND ( 'NONE', #18, .T. ) ;
#125 = PRODUCT_DEFINITION_SHAPE ( 'NONE', 'NONE',  #30 ) ;
#126 = LOCAL_TIME ( 12, 39, 27.00000000000000000, #110 ) ;
#127 = DATE_AND_TIME ( #141, #126 ) ;
#128 = SECURITY_CLASSIFICATION ( '', '', #99 ) ;
#129 = PLANE ( 'NONE',  #83 ) ;
#130 = LOCAL_TIME ( 12, 39, 27.00000000000000000, #59 ) ;
#131 =( LENGTH_UNIT ( ) NAMED_UNIT ( * ) SI_UNIT ( .MILLI., .METRE. ) );
#132 = APPROVAL_PERSON_ORGANIZATION ( #120, #150, #146 ) ;
#133 = EDGE_LOOP ( 'NONE', ( #119, #82, #12, #19 ) ) ;
#134 = PERSON_AND_ORGANIZATION ( #5, #76 ) ;
#135 = AXIS2_PLACEMENT_3D ( 'NONE', #56, #88, #142 ) ;
#136 = UNCERTAINTY_MEASURE_WITH_UNIT (LENGTH_MEASURE( 1.000000000000000100E-005 ), #131, 'distance_accuracy_value', 'NONE');
#137 = CC_DESIGN_PERSON_AND_ORGANIZATION_ASSIGNMENT ( #53, #29, ( #128 ) ) ;
#138 = COORDINATED_UNIVERSAL_TIME_OFFSET ( 5, 0, .BEHIND. ) ;
#139 = FACE_OUTER_BOUND ( 'NONE', #164, .T. ) ;
#140 = DIRECTION ( 'NONE',  ( 1.000000000000000000, 0.0000000000000000000, 0.0000000000000000000 ) ) ;
#141 = CALENDAR_DATE ( 2017, 3, 4 ) ;
#142 = DIRECTION ( 'NONE',  ( 1.000000000000000000, 0.0000000000000000000, 0.0000000000000000000 ) ) ;
#143 = DATE_TIME_ROLE ( 'classification_date' ) ;
#144 = CC_DESIGN_DATE_AND_TIME_ASSIGNMENT ( #167, #143, ( #128 ) ) ;
#145 = APPROVAL_STATUS ( 'not_yet_approved' ) ;
#146 = APPROVAL_ROLE ( '' ) ;
#147 = EDGE_LOOP ( 'NONE', ( #33, #71, #81, #98 ) ) ;
#148 = AXIS2_PLACEMENT_3D ( 'NONE', #6, #21, #114 ) ;
#149 = LOCAL_TIME ( 12, 39, 27.00000000000000000, #105 ) ;
#150 = APPROVAL ( #145, 'UNSPECIFIED' ) ;
#151 = CARTESIAN_POINT ( 'NONE',  ( 0.0000000000000000000, 0.0000000000000000000, 5.000000000000000000 ) ) ;
#152 = MANIFOLD_SOLID_BREP ( 'Extrude1', #161 ) ;
#153 = ORIENTED_EDGE ( 'NONE', *, *, #20, .T. ) ;
#154 = PERSON_AND_ORGANIZATION ( #5, #76 ) ;
#155 = ADVANCED_FACE ( 'NONE', ( #139 ), #15, .T. ) ;
#156 = CARTESIAN_POINT ( 'NONE',  ( -25.00000000000000000, 0.0000000000000000000, 0.0000000000000000000 ) ) ;
#157 = APPROVAL_ROLE ( '' ) ;
#158 = MECHANICAL_CONTEXT ( 'NONE', #44, 'mechanical' ) ;
#159 = CC_DESIGN_APPROVAL ( #150, ( #128 ) ) ;
#160 = ORIENTED_EDGE ( 'NONE', *, *, #13, .F. ) ;
#161 = CLOSED_SHELL ( 'NONE', ( #113, #51, #155, #66 ) ) ;
#162 = CARTESIAN_POINT ( 'NONE',  ( -25.00000000000000000, 0.0000000000000000000, 5.000000000000000000 ) ) ;
#163 = APPROVAL_DATE_TIME ( #115, #91 ) ;
#164 = EDGE_LOOP ( 'NONE', ( #107, #153 ) ) ;
#165 = DIRECTION ( 'NONE',  ( 1.000000000000000000, 0.0000000000000000000, -0.0000000000000000000 ) ) ;
#166 = CC_DESIGN_SECURITY_CLASSIFICATION ( #128, ( #49 ) ) ;
#167 = DATE_AND_TIME ( #70, #16 ) ;
#168 = PRODUCT ( 'Web Model 84458_48069', 'Web Model 84458_48069', '', ( #158 ) ) ;
#169 = FACE_OUTER_BOUND ( 'NONE', #147, .T. ) ;
#170 = APPROVAL_STATUS ( 'not_yet_approved' ) ;
#171 = PERSON_AND_ORGANIZATION ( #5, #76 ) ;
#172 = CARTESIAN_POINT ( 'NONE',  ( -25.00000000000000000, 0.0000000000000000000, 5.000000000000000000 ) ) ;
#173 = CYLINDRICAL_SURFACE ( 'NONE', #69, 25.00000000000000000 ) ;
#174 = APPROVAL_ROLE ( '' ) ;
#175 = PRODUCT_RELATED_PRODUCT_CATEGORY ( 'detail', '', ( #168 ) ) ;
ENDSEC;
END-ISO-10303-21;
